» » »

Quiero Tabs (ver.1)

Artists:  A B C D E F G H I J K L M N O P Q R S T U V W X Y Z # 

Quiero Tabs (ver.1)

Pignoise
Rating:
0/5 (0 votes)

Hard to play? Try these video lessons and learn fast.
                tuning:eBGDAE
awd1995

Verse
   Clean

|-000-111-000-333-|
|-111-111-111-333-|
|-222-222-000-000-| x3
|-222-333-222-000-|
|-000-333-333-222-|
|-----111-----333-|

   Distorsion

|-----------------|
|-----------------|
|---------555-----|
|-333-555-555-222-|
|-333-555-333-222-|
|-111-333-----000-|

P.M.............
|---------------|
|---------------|
|---------------|
|-333333-222222-|
|-333333-222222-|
|-111111-000000-|

Chorus
   Distorsion

|-----------------|
|-----------------|
|---------555-999-| x3
|-333-555-555-999-|
|-333-555-333-777-|
|-111-333---------|

Verse
   Distorsion

|-----------------|
|-----------------|
|---------555-----|x3 (in the second time, E is in Palm Mute)
|-333-555-555-222-|
|-333-555-333-222-|
|-111-333-----000-|

P.M.............
|---------------|
|---------------|
|---------------|
|-333333-222222-|
|-333333-222222-|
|-111111-000000-|

Chorus
   Distorsion

|-----------------|
|-----------------|
|---------555-999-| x3
|-333-555-555-999-|
|-333-555-333-777-|
|-111-333---------|

Solo

|-----------------------------------------------|
|-----------------------------------------------|
|------------10-12-10-9-9-9-9-10-9-7-7-7-7------|
|-7-7-7-9-10-------------------------------10-9-|
|-----------------------------------------------|
|-----------------------------------------------|


|-------------------------------|
|-------------------------------|
|-----------10-12-10-9-13-14-16-|
|-7--7-9-10---------------------|
|-------------------------------|
|-------------------------------|
            
Hard to play? Try these video lessons and learn fast. | Correct




comments powered by Disqus
↑ Back to top | Tablatures and chords are parodies/interpretations of the original songs. You may use it for private study, scholarship, research or language learning purposes only