>
 >
Starbelly

Starbelly Guitar Tabs

Pig Destroyer - Starbelly chords, tabs, tablatures, lyrics

Guitar lessons | Add/correct | Request | Top 50 tabs Artists:  A B C D E F G H I J K L M N O P Q R S T U V W X Y Z 0-9

Starbelly Guitar Tabs – Pig Destroyer

CD, Sheet music, Poster

Do you like Starbelly? Share with your friends now
Tabs
                  STARBELLY
                          As recorded by Pig Destroyer
                    (From the 2001 Album PROWLER IN THE YARD)

Words and Music by Pig Destroyer

Gtr I (A E A D G B) - 'Left'
Gtr II (A E A D G B) - 'Right'

   Intro
    Q=100
    N.C.        F5F#N.C.        G#A5  N.C.        F5F#N.C.        G#A5
   4/4
    Gtrs I, II
    S S S S S S S S S S S S S S S S   S S S S S S S S S S S S S S S S
||----------------------------------|----------------------------------||
||o---------------------------------|---------------------------------o||
||----------------------------------|----------------------------------||
||----------------------------------|----------------------------------||
||o-------------3-4-------------6-7-|-------------3-4-------------6-7-o||
||--0-6-7-0-6-0-3-4-0-6-7-0-6-0-6-7-|-0-6-7-0-6-0-3-4-0-6-7-0-6-0-6-7--||


   Verse
    N.C.        F5F#N.C.        G#A5  N.C.        F5F#N.C.        G#A5
    S S S S S S S S S S S S S S S S   S S S S S S S S S S S S S S S S   4x
||----------------------------------|-----------------------------------||
||o---------------------------------|----------------------------------o||
||----------------------------------|-----------------------------------||
||----------------------------------|-----------------------------------||
||o-------------3-4-------------6-7-|-------------3-4-------------6-7--o||
||--0-6-7-0-6-0-3-4-0-6-7-0-6-0-6-7-|-0-6-7-0-6-0-3-4-0-6-7-0-6-0-6-7---||


 Bridge
  D5
  Gtr I
                                  PM--------|
  W           Q       +H.         Q   Q  Q  Q     Q       +H.
|----------|-------------------|---------------|------------------|
|----------|-------------------|---------------|------------------|
|----------|-------------------|---------------|------------------|
|----------|-------------------|---------------|------------------|
|-0--------|-------------------|---------------|------------------|
|-0--------|-13b15===(13)r=====|==0---0--0--0--|-12b14===(12)r====|
|
| Gtr II
| W          +W                  +W              +W
|----------|-------------------|---------------|------------------|
|----------|-------------------|---------------|------------------|
|----------|-------------------|---------------|------------------|
|----------|-------------------|---------------|------------------|
|-0--------|-(0)---------------|-(0)-----------|-(0)--------------|
|-0--------|-(0)---------------|-(0)-----------|-(0)--------------|


  (D5)                                                F5     F#5
   PM--------|                         PM--------|
   Q   Q  Q  Q     Q       +H.         Q   Q  Q  Q     H     H
|---------------|-------------------|---------------|-------------|
|---------------|-------------------|---------------|-------------|
|---------------|-------------------|---------------|-------------|
|---------------|-------------------|---------------|-------------|
|---------------|-------------------|---------------|--3-----4----|
|--0---0--0--0--|-10b12===(10)r=====|==0---0--0--0--|--3-----4----|
|
| +W              +W                  +W              +W
|---------------|-------------------|---------------|-------------|
|---------------|-------------------|---------------|-------------|
|---------------|-------------------|---------------|-------------|
|---------------|-------------------|---------------|-------------|
|-(0)-----------|-(0)---------------|-(0)-----------|-(0)---------|
|-(0)-----------|-(0)---------------|-(0)-----------|-(0)---------|


  (D5)
   PM--------|                         PM--------|
   Q   Q  Q  Q     Q       +H.         Q   Q  Q  Q     Q       +H.
|---------------|-------------------|---------------|------------------|
|---------------|-------------------|---------------|------------------|
|---------------|-------------------|---------------|------------------|
|---------------|-------------------|---------------|------------------|
|---------------|-------------------|---------------|------------------|
|--0---0--0--0--|-13b15===(13)r=====|==0---0--0--0--|-12b14===(12)r====|
|
| +W              +W                  +W              +W
|---------------|-------------------|---------------|------------------|
|---------------|-------------------|---------------|------------------|
|---------------|-------------------|---------------|------------------|
|---------------|-------------------|---------------|------------------|
|-(0)-----------|-(0)---------------|-(0)-----------|-(0)--------------|
|-(0)-----------|-(0)---------------|-(0)-----------|-(0)--------------|


  (D5)                                                  F5   F#5
   PM--------|                         PM---------|
   Q   Q  Q  Q     Q       +H.         Q    Q  Q  Q     H    H
|---------------|-------------------|-----------------|-----------|
|---------------|-------------------|-----------------|-----------|
|---------------|-------------------|-----------------|-----------|
|---------------|-------------------|-----------------|-----------|
|---------------|-------------------|-----------------|-3----4----|
|--0---0--0--0--|-10b12===(10)r=====|==0----0--0--0---|-3----4----|
|
|                                                   PM
| +W              +W                  +H..          E   H    H
|---------------|-------------------|-----------------|-----------|
|---------------|-------------------|-----------------|-----------|
|---------------|-------------------|-----------------|-----------|
|---------------|-------------------|-----------------|-----------|
|-(0)-----------|-(0)---------------|-(0)-------------|-3----4----|
|-(0)-----------|-(0)---------------|-(0)-----------0-|-3----4----|


   Verse
    N.C.
    Gtrs I, II
    PM-------|                        PM-------|
    Q  Q  Q  Q     Q       +H.        Q  Q  Q  Q     Q       +H.
||--------------|-------------------|-------------|------------------|
||o-------------|-------------------|-------------|------------------|
||--------------|-------------------|-------------|------------------|
||--------------|-------------------|-------------|------------------|
||o-------------|-------------------|-------------|------------------|
||--0--0--0--0--|-13b15===(13)r=====|=0--0--0--0--|-12b14===(12)r====|


  N.C.                                            F5   F#5
  PM-------|                        PM-------|
  Q  Q  Q  Q     Q       +H.        Q  Q  Q  Q    H    H     4x
|-------------|-------------------|-------------|------------||
|-------------|-------------------|-------------|-----------o||
|-------------|-------------------|-------------|------------||
|-------------|-------------------|-------------|------------||
|-------------|-------------------|-------------|-3----4----o||
|-0--0--0--0--|-10b12===(10)r=====|=0--0--0--0--|-3----4-----||


 Bridge
  D5                        D5  C5  B5A5B5 A5G5A5 G5F#5
  Gtr I
  Q  H.        +W            E    E S E  E S E  S S E
|------------|------------|---------------------------|
|------------|------------|---------------------------|
|------------|------------|---------------------------|
|------------|------------|---------------------------|
|-0--0-------|-(0)--------|--0--/10-9-7-/9-7-5-/7-5-4-|
|-0--0-------|-(0)--------|--0--/10-9-7-/9-7-5-/7-5-4-|
|
| Gtr II
| Q  H.        +W           +W
|------------|------------|---------------------------|
|------------|------------|---------------------------|
|------------|------------|---------------------------|
|------------|------------|---------------------------|
|-0--0-------|-(0)--------|-(0)-----------------------|
|-0--0-------|-(0)--------|-(0)-----------------------|


  D5  C5  B5A5B5 A5G5A5 G5F#5
   E    E S E  E S E  S S E
|---------------------------|
|---------------------------|
|---------------------------|
|---------------------------|
|--0--/10-9-7-/9-7-5-/7-5-4-|
|--0--/10-9-7-/9-7-5-/7-5-4-|
|
| +W
|---------------------------|
|---------------------------|
|---------------------------|
|---------------------------|
|-(0)-----------------------|
|-(0)-----------------------|


   Pre-Verse
    D5C5  B5A5B5 A5G5A5 G5F#5 D5C5  B5A5B5 A5G5A5 G5F#5
    Gtrs I, II
    E   E S E  E S E  S S E   E   E S E  E S E  S S E
||--------------------------|-------------------------|
||o-------------------------|-------------------------|
||--------------------------|-------------------------|
||--------------------------|-------------------------|
||o-0-/10-9-7-/9-7-5-/7-5-4-|-0-/10-9-7-/9-7-5-/7-5-4-|
||--0-/10-9-7-/9-7-5-/7-5-4-|-0-/10-9-7-/9-7-5-/7-5-4-|


  D5C5  B5A5B5 A5G5A5 G5F#5 D5C5  B5A5B5 A5G5A5 G5F#5
  E   E S E  E S E  S S E   E   E S E  E S E  S S E
|-------------------------|--------------------------||
|-------------------------|-------------------------o||
|-------------------------|--------------------------||
|-------------------------|--------------------------||
|-0-/10-9-7-/9-7-5-/7-5-4-|-0-/10-9-7-/9-7-5-/7-5-4-o||
|-0-/10-9-7-/9-7-5-/7-5-4-|-0-/10-9-7-/9-7-5-/7-5-4--||


   Verse
    D5C5  B5A5B5 A5G5A5 G5F#5 D5C5  B5A5B5 A5G5A5 G5F#5
    E   E S E  E S E  S S E   E   E S E  E S E  S S E
||--------------------------|-------------------------|
||o-------------------------|-------------------------|
||--------------------------|-------------------------|
||--------------------------|-------------------------|
||o-0-/10-9-7-/9-7-5-/7-5-4-|-0-/10-9-7-/9-7-5-/7-5-4-|
||--0-/10-9-7-/9-7-5-/7-5-4-|-0-/10-9-7-/9-7-5-/7-5-4-|


  D5C5  B5A5B5 A5G5A5 G5F#5 D5C5  B5A5B5 A5G5A5 G5F#5
  E   E S E  E S E  S S E   E   E S E  E S E  S S E
|-------------------------|--------------------------||
|-------------------------|-------------------------o||
|-------------------------|--------------------------||
|-------------------------|--------------------------||
|-0-/10-9-7-/9-7-5-/7-5-4-|-0-/10-9-7-/9-7-5-/7-5-4-o||
|-0-/10-9-7-/9-7-5-/7-5-4-|-0-/10-9-7-/9-7-5-/7-5-4--||


 Bridge
  N.C.
  PM------------------------------------------------------------------|
  E E E E E E E E   E E E E E E E E   E E E E E E E E   E E E E E E E E
|-----------------|-----------------|-----------------|-----------------|
|-----------------|-----------------|-----------------|-----------------|
|-----------------|-----------------|-----------------|-----------------|
|-----------------|-----------------|-----------------|-----------------|
|-----------------|-----------------|-----------------|-----------------|
|-0-0-0-0-0-0-0-0-|-0-0-0-0-0-0-0-0-|-0-0-0-0-0-0-0-0-|-0-0-0-0-0-0-0-0-|


   Outro
    N.C.  F5F#N.C.
    PM--|     PM----------|    PM
    E E E E E E E E   E E E  E E  E  E  E
||------------------|---------------------|
||o-----------------|---------------------|
||------------------|---------------------|
||------------------|---------------------|
||o-------3h4-------|---------------------|
||--0-0-0-3h4-0-0-0-|-0-0-0-13-0-13-10-12-|


        F5F#N.C.
  PM--|     PM----------|    PM
  E E E E E E E E   E E E  E E  E  E  E   8x
|-----------------|-----------------------||
|-----------------|----------------------o||
|-----------------|-----------------------||
|-----------------|-----------------------||
|-------3h4-------|----------------------o||
|-0-0-0-3h4-0-0-0-|-0-0-0-13-0-13-10-12---||





Comments


Popular Pig Destroyer tabs & chords
Crippled Horses Tabs
Fuck You Up And Get High Tabs
Gravedancer Tabs
Hymn Tabs
Hymn 1 Tabs
Loathsome Tabs
Oven Melvins Cover Tabs
Rotten Yellow Tabs


Song lyrics



↑ Back to top | Tablatures and chords are parodies/interpretations of the original songs. You may use it for private study, scholarship, research or language learning purposes only
© 2014 AZChords.com Contact us | Privacy policy | DMCA | Add/correct tabs | Request tabs | Top 50 tabs