» » »

Rotten Yellow Tabs (ver.1)

Artists:  A B C D E F G H I J K L M N O P Q R S T U V W X Y Z # 

Rotten Yellow Tabs (ver.1)

Pig Destroyer
Rating:
1/5 (1 vote)

Hard to play? Try these video lessons and learn fast.
                B-1-1-1-1-2-2-2-2-1-1-1-1-2-2-2-2-1-1-1-1-2-------|
E--------------------------------------------3-3--|
A--------------------------------------------5-5--|
D-------------------------------------------------|
G-------------------------------------------------|
b-------------------------------------------------|
e-------------------------------------------------|

B-1-1-1-1-2-2-2-2-1-1-1-1-2-2-2-2-1-1-1-1-2-------|
E--------------------------------------------5-5--|
A--------------------------------------------7-7--|
D-------------------------------------------------|
G-------------------------------------------------|
b-------------------------------------------------|
e-------------------------------------------------|  (2x)

B-0-0-0|---0-0-0----------------------------------|
E-2-2-2|---2-2-2-0--0-----------------------------|
A----------------1--1-----------------------------|
D----------------2--2-----------------------------|
G-------------------------------------------------|
b-------------------------------------------------|
e-------------------------------------------------|

B-0-----------------------------------------------|
E-0---3-2--0--------------------------------------|
A-----5-4--0---2-1--------------------------------|
D--------------4-3--------------------------------|
G-------------------------------------------------|
b-------------------------------------------------|
e-------------------------------------------------|  (4x)


then theirs a little break down thingy thats all just palm muting on this power chord  B-0--|
             E-2----------------------------------------------------------------------------|

B-0-0-0-0-3^p0--0-0-0-0-0-------------------------|
E-------------------------4^-4^-------------------|
A-------------------------------------------------|
D-------------------------------------------------|
G-------------------------------------------------|
b-------------------------------------------------|
e-------------------------------------------------|  (4x)
 . . . .       . . . . .

B-0-0-0|---0-0-0|---------------------------------|
E-2-2-2|---2-2-2|---------------------------------|
A-------------------------------------------------|
D-------------------------------------------------|
G-------------------------------------------------|
b-------------------------------------------------|
e-------------------------------------------------|

B-0-----------------------------------------------|
E-0---3-2--0--------------------------------------|
A-----5-4--0---2-1--------------------------------|
D--------------4-3--------------------------------|
G-------------------------------------------------|
b-------------------------------------------------|
e-------------------------------------------------|  (4x)

theres 2 more riffs at the end that i havent figured out yet
these tabs are not 100% correct, its just what i figured out by ear


. = palm muteing
^ = bend note up
p = pull off
| = mute strings with fret hand
            
Hard to play? Try these video lessons and learn fast. | Correct




comments powered by Disqus
↑ Back to top | Tablatures and chords are parodies/interpretations of the original songs. You may use it for private study, scholarship, research or language learning purposes only