» » »

Pig Destroyer, Gravedancer Tabs (ver.1)

Artists:  A B C D E F G H I J K L M N O P Q R S T U V W X Y Z # 

Gravedancer Tabs (ver.1)

Pig Destroyer Tabs
Rating:
5/5 (2 votes)
Gravedancer lessons Tabs too difficult? Try these video lessons and learn fast
                Pig Destroyer - Gravedancer


Tuning - Drop D (DADGBe)

Legend:

* = Palm Mute
h = Hammer-on
/ = Slide

Intro
0:00 - 0:03
e:----------------------------------------------------|
B:----------------------------------------------------|
G:----------------------------------------------------|
D:-3--------------------------------------------------|
A:-3-333333333333333333333----------------------------|
D:-3-333333333333333333333----------------------------|
PM   ******************
      (Slowly release palm mute with each )

Hidden Riff
0:04-0:05
e:----------------------------------------------------|
B:----------------------------------------------------|
G:-1---1-3-4-3-1--------------------------------------|
D:-1-3-1-3-4-3-1--------------------------------------|
A:---3------------------------------------------------|
D:----------------------------------------------------|

Fill 1
0:05-0:14
e:----------------------------------------------------|
B:----------------------------------------------------|
G:----------------------------------------------------|
D:----------------------------------------------------|
A:----------------------------------------------------|
D:-10h12-00-12-000-6-00-5-00-3-0----------------------|
PM       **    ***   **   **   *

Main Riff 1
0:14-0:26
0:31-0:45
e:----------------------------------------------------|
B:----------------------------------------------------|
G:----------------------------------------------------|
D:------------3-56------------------------------------|
A:-000000000003056------------------------------------|
D:-000000000003056------------------------------------|
PM *********** *

Main Riff 2
0:26-0:30
0:45-0:59
e:----------------------------------------------------|
B:----------------------------------------------------|
G:----------------------------------------------------|
D:----55----55----55---------7------------------------|
A:-00-33-00-33-00-33-1h3-3h6-5------------------------|
D:-00----00----00-------------------------------------|

Main Riff 1 Variation
0:59-1:08
e:------------------------------------------------------|
B:------------------------------------------------------|
G:------------------------------------------------------|
D:----365----3/5/7--------------------------------------|
A:-000365----1/3/5--------------------------------------|
D:-0003650000-------------------------------------------|
PM ***   ****

Main Riff 1 Variation 2
1:09-1:18
1:28-37
e:----------------------------------------------------|
B:----------------------------------------------------|
G:----------------------------------------------------|
D:----36535-3-5-7-------------------------------------|
A:-00036535-1/3/5-------------------------------------|
D:-00036535-------------------------------------------|
PM ***

Main riff 3
1:18-1:27
1:37-1:47
e:----------------------------------------------------|
B:----------------------------------------------------|
G:----------------------------------------------------|
D:---66-666-666-666-666-666-666-666-------------------|
A:---55-555-555-555-555-555-555-555-------------------|
D:---00-000-000-000-000-000-000-000-------------------|
            
Submit corrections

comments powered by Disqus
↑ Back to top | Pig Destroyer Tabs for Gravedancer. Lyrics for acoustic guitar and electric guitar. Tablatures and chords are parodies/interpretations of the original songs. You may use it for private study, scholarship, research or language learning purposes only