>
 >
Just The Way You Are

Just The Way You Are Guitar Tabs

Pierce The Veil - Just The Way You Are chords, tabs, tablatures, lyrics

Guitar lessons | Add/correct | Request | Top 50 tabs Artists:  A B C D E F G H I J K L M N O P Q R S T U V W X Y Z 0-9

Just The Way You Are Guitar Tabs – Pierce The Veil

CD, Sheet music, Poster

Do you like Just The Way You Are? Share with your friends now
Bass TabsTabsTabs v2
-----------------------------------------------------------------------------
-----------------------------------------------------------------------------

Tuning: Drop D DADGBe

Intro

Guitar 1
e|--------------------------13b-(15)-13-------------------------------------|
B|-----------------------------------------15-17-18-13-17-13----------------|
G|-----------------------------------------------------------15~~-----------|
D|-3~~~~--3--3--0~~~~-------------------------------------------------------|
A|-3~~~~--3--3--0~~~~-------------------------------------------------------|
D|-3~~~~--3--3--0~~~~-------------------------------------------------------|

Guitar 2
e|----------------------------------------------------------------------------|
B|--------------------------15b-(17)-17---------------------------------------|
G|----------------------------------------------------------------------------|
D|-3~~~~--3--3--0~~~~-----------------------0--3--3~~~~-----------------------|
A|-3~~~~--3--3--0~~~~-----------------------0--3--3~~~~-----------------------|
D|-3~~~~--3--3--0~~~~-----------------------0--3--3~~~~-----------------------|


Guitar 1
e|--------------------------------------------------------------------------|
B|--------------------------------------------------------------------------|
G|--------------------------------------------------------------------------|
D|--7-8-7-8-7-5-3~~~~-------------------------------------------------------|
A|--------------------------------------------------------------------------|
D|--------------------------------------------------------------------------|

e|--------------------------------------------------------------------------|
B|--------------------------------------------------------------------------|
G|--------------------------------------------------------------------------|
D|---3--5--3~~~~------------------------------------------------------------|
A|---3--5--3~~~~------------------------------------------------------------|
D|---3--5--3~~~~------------------------------------------------------------|


Verse 1

Guitar 1
e|--------------------------------------------------------------------------|
B|--------------------------------------------------------------------------|
G|-10-10101010101010101010101010101010101010101010101010101010-9999---------|
D|--------------------------------------------------------------------------|
A|--8--8-8-8-8-8-8-8-8-8-8-8-8-8-8-8-8-8-8-8-8-8-8-8-8-8-8-8-8-7777---------|
D|--------------------------------------------------------------------------|

Guitar 2
e|--------------------------------------------------------------------------|
B|--------------------------------------------------------------------------|
G|--------------------------------------------------------------------------|
D|--------------------------------------------------------------------------|
A|--------------------------------------------------------------------------|
D|--------------------------------------------------------------------------|


Guitar 1
e|--------------------------------------------------------------------------|
B|--------------------------------------------------------------------------|
G|-77777777777777777777777777777777-----------------------------------------|
D|--------------------------------------------------------------------------|
A|-55555555555555555555555555555555-----------------------------------------|
D|--------------------------------------------------------------------------|

Guitar 2
e|--------------------------------------------------------------------------|
B|--------------------------------------------------------------------------|
G|--------------------------------------------------------------------------|
D|--------------------------------------------------------------------------|
A|--------------------------------------------------------------------------|
D|--------------------------------------------------------------------------|


Guitar 1
e|--------------------------------------------------------------------------|
B|--------------------------------------------------------------------------|
G|------10-10-9-9-------------10-10-9-9-------------10-10-9-9---------------|
D|----------------10-10-----------------10-10-----------------10-10---------|
A|--8-8-------------------8-8-------------------8-8-------------------------|
D|--------------------------------------------------------------------------|

Guitar 2
e|--------------------------------------------------------------------------|
B|--------------------------------------------------------------------------|
G|------10-10-9-9-------------10-10-9-9-------------10-10-9-9---------------|
D|----------------10-10-----------------10-10-----------------10-10---------|
A|--8-8-------------------8-8-------------------8-8-------------------------|
D|--------------------------------------------------------------------------|


Guitar 1
e|--------------------------------------------------------------------------|
B|-----------------------------10-10-8-8---------------10-10-8-8------------|
G|------10-10-9-9------------------------10-10-------------------10-10------|
D|----------------10-10-----------------------------------------------------|
A|--8-8-------------------8-8---------------------8-8-----------------------|
D|--------------------------------------------------------------------------|

Guitar 2
e|--------------------------------------------------------------------------|
B|-----------------------------10-10-8-8---------------10-10-8-8------------|
G|------10-10-9-9------------------------10-10-------------------10-10------|
D|----------------10-10-----------------------------------------------------|
A|--8-8-------------------8-8---------------------8-8-----------------------|
D|--------------------------------------------------------------------------|


Guitar 1
e|--------------------------------------------------------------------------|
B|--------------------------------------------------------------------------|
G|-------10--9------12--10--9--10-------------------------------------------|
D|--------------10----------------------------------------------------------|
A|-8-8----------------------------------------------------------------------|
D|--------------------------------------------------------------------------|

Guitar 2
e|--------------------------------------------------------------------------|
B|--------------------------------------------------------------------------|
G|--------------------------------------------------------------------------|
D|--------------------------------------------------------------------------|
A|-8-8----------------------------------------------------------------------|
D|--------------------------------------------------------------------------|


Guitar 1
e|--------------------------------------------------------------------------|
B|--------------------------------------------------------------------------|
G|------------------------------------77--777--777--777--10-9---------------|
D|-33333333333333333333333333333333-----------------------------10-8--------|
A|-33333333333333333333333333333333---55--555--555--555---8-7---10-8--------|
D|-33333333333333333333333333333333-----------------------------10-8--------|

Guitar 2
e|--------------------------------------------------------------------------|
B|--------------------------------------------------------------------------|
G|-------------------------------------------------------10-9---------------|
D|-33333333333333333333333333333333---00--000--000--000---------10-8--------|
A|-33333333333333333333333333333333---00--000--000--000--8--7---10-8--------|
D|-33333333333333333333333333333333---00--000--000--000---------10-8--------|

Pre-Chorus

Guitar 1
e|--------------------------------------------------------------------------|
B|--------------------------------------------------------------------------|
G|-10--9-----10--9-----101010101010101010101010-----------------------------|
D|-------10---------10------------------------------------------------------|
A|--------------------------------------------------------------------------|
D|--------------------------------------------------------------------------|

Guitar 2
e|--------------------------------------------------------------------------|
B|--------------------------------------------------------------------------|
G|--------------------------------------------------------------------------|
D|-33333333-----------------------------------------------------------------|
A|-33333333-----------------------------------------------------------------|
D|-33333333-----------------------------------------------------------------|



Chorus

Guitar 1
e|-------------------------------------------------|
B|-------------------------------------------------|
G|-14-14-14-14-14-14-14-14-14-14-14-14-12-12-15-15-|
D|-------------------------------------------------|
A|-12-12-12-12-12-12-12-12-12-12-12-12-10-10-13-13-|
D|-------------------------------------------------|

Guitar 2
e|-------------------------------------------------|
B|-------------------------------------------------|
G|-------------------------------------------------|
D|-3-3-3-3-3-3-3-3-3-3-3-3-3-3-3-3-----------------|
A|-3-3-3-3-3-3-3-3-3-3-3-3-3-3-3-3-----------------|
D|-3-3-3-3-3-3-3-3-3-3-3-3-3-3-3-3-----------------|


Guitar 1
e|-------------------------------------------------|
B|-------------------------------------------------|
G|-10-10-10-10-10-10-10-10-10-10-10-10-12-12-12-15-|
D|-------------------------------------------------|
A|-8--8--8--8--8--8--8--8--8--8--8--8--10-10-10-13-|
D|-------------------------------------------------|

Guitar 2
e|-----------------------------------------|
B|-----------------------------------------|
G|-----------------------------------------|
D|-0-0-0-0-0-0-0-0-0-0-0-0-0-0-0-0-0-------|
A|-0-0-0-0-0-0-0-0-0-0-0-0-0-0-0-0-0-------|
D|-0-0-0-0-0-0-0-0-0-0-0-0-0-0-0-0-0-------|


Guitar 1
e|------------------------------------|
B|------------------------------------|
G|-7-7-7-7-7-7-7-7-7-7-7-7-10-10-12-12|
D|------------------------------------|
A|-5-5-5-5-5-5-5-5-5-5-5-5-8--8--10-10|
D|------------------------------------|

Guitar 2
e|----------------------------------------------|
B|----------------------------------------------|
G|-3-3-3-3-3-3-3-3-3-3-3-3-3-3-3-3-3------------|
D|-3-3-3-3-3-3-3-3-3-3-3-3-3-3-3-3-3------------|
A|-1-1-1-1-1-1-1-1-1-1-1-1-1-1-1-1-1------------|
D|----------------------------------------------|


Guitar 1
e|------------------------------------------|
B|------6-5-------6-5-------6-5-------6-5---|
G|----------5---------5---------5---------5-|
D|------------------------------------------|
A|--3-3-------3-3-------3-3-------3-3-------|
D|--3-3-------3-3-------3-3-------3-3-------|

Guitar 2
e|------------------------------------------|
B|------6-5-------6-5-------6-5-------6-5---|
G|----------5---------5---------5---------5-|
D|------------------------------------------|
A|--3-3-------3-3-------3-3-------3-3-------|
D|--3-3-------3-3-------3-3-------3-3-------|


Guitar 1
e|-------------------------------------------------|
B|-------------------------------------------------|
G|-14-14-14-14-14-14-14-14-14-14-14-14-12-12-15-15-|
D|-------------------------------------------------|
A|-12-12-12-12-12-12-12-12-12-12-12-12-10-10-13-13-|
D|-------------------------------------------------|

Guitar 2
e|-------------------------------------------------|
B|-------------------------------------------------|
G|-------------------------------------------------|
D|-3-3-3-3-3-3-3-3-3-3-3-3-3-3-3-3-----------------|
A|-3-3-3-3-3-3-3-3-3-3-3-3-3-3-3-3-----------------|
D|-3-3-3-3-3-3-3-3-3-3-3-3-3-3-3-3-----------------|


Guitar 1
e|-------------------------------------------------|
B|-------------------------------------------------|
G|-10-10-10-10-10-10-10-10-10-10-10-10-12-12-12-15-|
D|-------------------------------------------------|
A|-8--8--8--8--8--8--8--8--8--8--8--8--10-10-10-13-|
D|-------------------------------------------------|

Guitar 2
e|-----------------------------------------|
B|-----------------------------------------|
G|-----------------------------------------|
D|-0-0-0-0-0-0-0-0-0-0-0-0-0-0-0-0-0-------|
A|-0-0-0-0-0-0-0-0-0-0-0-0-0-0-0-0-0-------|
D|-0-0-0-0-0-0-0-0-0-0-0-0-0-0-0-0-0-------|


Guitar 1
e|------------------------------------|
B|------------------------------------|
G|-7-7-7-7-7-7-7-7-7-7-7-7-10-10-12-12|
D|------------------------------------|
A|-5-5-5-5-5-5-5-5-5-5-5-5-8--8--10-10|
D|------------------------------------|

Guitar 2
e|----------------------------------------------|
B|----------------------------------------------|
G|-3-3-3-3-3-3-3-3-3-3-3-3-3-3-3-3-3------------|
D|-3-3-3-3-3-3-3-3-3-3-3-3-3-3-3-3-3------------|
A|-1-1-1-1-1-1-1-1-1-1-1-1-1-1-1-1-1------------|
D|----------------------------------------------|


Guitar 1
e|------------------------------------------------------|
B|----------------------------11-10-11-13-11-10-11-13~--|
G|-14-14-14-15-17-17-17-15-14---------------------------|
D|------------------------------------------------------|
A|-12-12-12-13-15-15-15-13-12---------------------------|
D|------------------------------------------------------|

Guitar 2
e|------------------------------------------------------|
B|----------------------------11-10-11-13-11-10-11-13~--|
G|------------------------------------------------------|
D|------------------------------------------------------|
A|------------------------------------------------------|
D|------------------------------------------------------|


Verse 2

Guitar 1
e|---------------------------------------------------------------|
B|---------------------------------------------------------------|
G|----10/--------------------------------------------------------|
D|---------------------------------------------------------------|
A|-----8/--------------------------------17/---------------------|
D|---------------------------------------------------------------|

Guitar 2
e|---------------------------------------------------------------|
B|---------------------------------------------------------------|
G|----10/--------------------------------------------------------|
D|---------------------------------------------------------------|
A|-----8/--------------------------------17/---------------------|
D|---------------------------------------------------------------|


Guitar 1
e|---------------------------------------------------------------------|
B|---------------------------------------------------------------------|
G|-10-10-10-9-9-9-5--10-10-10-9-9-9-5--1414141414141414-10-10-10-7-7-7-|
D|---------------------------------------------------------------------|
A|-8--8--8--7-7-7-3--8--8--8--7-7-7-3--1212121212121212-8--8--8--5-5-5-|
D|---------------------------------------------------------------------|

Guitar 2
e|---------------------------------------------------------------------|
B|---------------------------------------------------------------------|
G|---------------------------------------------------------------------|
D|-0-0-0-0-0-0-0-0-0-0-0-0-0-0-0-0-0-0-0-0-0-0-0-0-0-0-0-0-0-0-0-0-0-0-|
A|-0-0-0-0-0-0-0-0-0-0-0-0-0-0-0-0-0-0-0-0-0-0-0-0-0-0-0-0-0-0-0-0-0-0-|
D|-0-0-0-0-0-0-0-0-0-0-0-0-0-0-0-0-0-0-0-0-0-0-0-0-0-0-0-0-0-0-0-0-0-0-|
PM . . . . . . . . . . . . . . . . . . . . . . . . . . . . . . . . . .


Guitar 1
e|--------------------------------------------------------------|
B|--------------------------------------------------------------|
G|------------------------------------------14--12--10-9-10-14--|
D|--------------------------------------------------------------|
A|------------------------------------------12--10--8--7-8--10--|
D|--------------------------------------------------------------|

Guitar 2
e|--------------------------------------------------------------|
B|--------------------------------------------------------------|
G|------------------------------------------14--12--10-9-10-14--|
D|--------------------------------------------------------------|
A|------------------------------------------12--10--8--7-8--10--|
D|--------------------------------------------------------------|


Guitar 1
e|--------------------------------------------------------------------|
B|--------------------------------------------------------------------|
G|-14---14---14---14---14---14---14-12--10--10--10--10--10--10--10-12-|
D|--------------------------------------------------------------------|
A|-12---12---12---12---12---12---12-10--8---8---8---8---8---8---8--10-|
D|--------------------------------------------------------------------|

Guitar 2
e|--------------------------------------------------------------------|
B|--------------------------------------------------------------------|
G|--------------------------------------------------------------------|
D|--3----3----3----3----3----3----3-2---0---0---0---0---0---0---0---2-|
A|--3----3----3----3----3----3----3-2---0---0---0---0---0---0---0---2-|
D|--3----3----3----3----3----3----3-2---0---0---0---0---0---0---0---2-|


Guitar 1
e|------------------------------------------------------------------------------------|
B|------------------------------------------------------------------------------------|
G|------10-10-9-9-----------10-10-9-9------------10-10-9-9------------10-10-9-9-------|
D|----------------10-10---------------10-10----------------10-10----------------10-10-|
A|--8-8------------------8-8-----------------8-8------------------8-8-----------------|
D|------------------------------------------------------------------------------------|

Guitar 2
e|------------------------------------------------------------------------------------|
B|------------------------------------------------------------------------------------|
G|------10-10-9-9-----------10-10-9-9------------10-10-9-9------------10-10-9-9-------|
D|----------------10-10---------------10-10----------------10-10----------------10-10-|
A|--8-8------------------8-8-----------------8-8------------------8-8-----------------|
D|------------------------------------------------------------------------------------|


Guitar 1
|------------------------------------------------|
|------------------------------------------------|
|------10-10-9-9-----~------10-10-9-9--------14--|
|----------------10-10----------------10-10------|
|--8-8------------------8-8------------------12--|
|------------------------------------------------|

Guitar 2
|------------------------------------------------|
|------------------------------------------------|
|------10-10-9-9-----~------10-10-9-9--------14--|
|----------------10-10----------------10-10------|
|--8-8------------------8-8------------------12--|
|------------------------------------------------|


Chorus

Guitar 1
e|-------------------------------------------------|
B|-------------------------------------------------|
G|-14-14-14-14-14-14-14-14-14-14-14-14-12-12-15-15-|
D|-------------------------------------------------|
A|-12-12-12-12-12-12-12-12-12-12-12-12-10-10-13-13-|
D|-------------------------------------------------|

Guitar 2
e|-------------------------------------------------|
B|-------------------------------------------------|
G|-------------------------------------------------|
D|-3-3-3-3-3-3-3-3-3-3-3-3-3-3-3-3-----------------|
A|-3-3-3-3-3-3-3-3-3-3-3-3-3-3-3-3-----------------|
D|-3-3-3-3-3-3-3-3-3-3-3-3-3-3-3-3-----------------|


Guitar 1
e|-------------------------------------------------|
B|-------------------------------------------------|
G|-10-10-10-10-10-10-10-10-10-10-10-10-12-12-12-15-|
D|-------------------------------------------------|
A|-8--8--8--8--8--8--8--8--8--8--8--8--10-10-10-13-|
D|-------------------------------------------------|

Guitar 2
e|-----------------------------------------|
B|-----------------------------------------|
G|-----------------------------------------|
D|-0-0-0-0-0-0-0-0-0-0-0-0-0-0-0-0-0-------|
A|-0-0-0-0-0-0-0-0-0-0-0-0-0-0-0-0-0-------|
D|-0-0-0-0-0-0-0-0-0-0-0-0-0-0-0-0-0-------|


Guitar 1
e|------------------------------------|
B|------------------------------------|
G|-7-7-7-7-7-7-7-7-7-7-7-7-10-10-12-12|
D|------------------------------------|
A|-5-5-5-5-5-5-5-5-5-5-5-5-8--8--10-10|
D|------------------------------------|

Guitar 2
e|----------------------------------------------|
B|----------------------------------------------|
G|-3-3-3-3-3-3-3-3-3-3-3-3-3-3-3-3-3------------|
D|-3-3-3-3-3-3-3-3-3-3-3-3-3-3-3-3-3------------|
A|-1-1-1-1-1-1-1-1-1-1-1-1-1-1-1-1-1------------|
D|----------------------------------------------|


Guitar 1
e|------------------------------------------|
B|------6-5-------6-5-------6-5-------6-5---|
G|----------5---------5---------5---------5-|
D|------------------------------------------|
A|--3-3-------3-3-------3-3-------3-3-------|
D|--3-3-------3-3-------3-3-------3-3-------|

Guitar 2
e|------------------------------------------|
B|------6-5-------6-5-------6-5-------6-5---|
G|----------5---------5---------5---------5-|
D|------------------------------------------|
A|--3-3-------3-3-------3-3-------3-3-------|
D|--3-3-------3-3-------3-3-------3-3-------|


Guitar 1
e|-------------------------------------------------|
B|-------------------------------------------------|
G|-14-14-14-14-14-14-14-14-14-14-14-14-12-12-15-15-|
D|-------------------------------------------------|
A|-12-12-12-12-12-12-12-12-12-12-12-12-10-10-13-13-|
D|-------------------------------------------------|

Guitar 2
e|-------------------------------------------------|
B|-------------------------------------------------|
G|-------------------------------------------------|
D|-3-3-3-3-3-3-3-3-3-3-3-3-3-3-3-3-----------------|
A|-3-3-3-3-3-3-3-3-3-3-3-3-3-3-3-3-----------------|
D|-3-3-3-3-3-3-3-3-3-3-3-3-3-3-3-3-----------------|


Guitar 1
e|-------------------------------------------------|
B|-------------------------------------------------|
G|-10-10-10-10-10-10-10-10-10-10-10-10-12-12-12-15-|
D|-------------------------------------------------|
A|-8--8--8--8--8--8--8--8--8--8--8--8--10-10-10-13-|
D|-------------------------------------------------|

Guitar 2
e|-----------------------------------------|
B|-----------------------------------------|
G|-----------------------------------------|
D|-0-0-0-0-0-0-0-0-0-0-0-0-0-0-0-0-0-------|
A|-0-0-0-0-0-0-0-0-0-0-0-0-0-0-0-0-0-------|
D|-0-0-0-0-0-0-0-0-0-0-0-0-0-0-0-0-0-------|


Guitar 1
e|-------------------------|
B|-------------------------|
G|-7-7-7-7-7-7-7-7-7-7-7-7-|
D|-------------------------|
A|-5-5-5-5-5-5-5-5-5-5-5-5-|
D|-------------------------|

Guitar 2
e|-------------------------|
B|-------------------------|
G|-3-3-3-3-3-3-3-3-3-3-3-3-|
D|-3-3-3-3-3-3-3-3-3-3-3-3-|
A|-1-1-1-1-1-1-1-1-1-1-1-1-|
D|-------------------------|


Bridge

Guitar 1
e|------------------------------------|
B|------------------------------------|
G|------------------------------------|
D|------------------------------------|
A|------------------------------------|
D|------------------------------------|

Guitar 2
e|------------------------------------|
B|------------------------------------|
G|------------------------------------|
D|-3--3-3-3-3-3-3-3-3-3-3-3-3-3-3-3-3-|
A|-3--3-3-3-3-3-3-3-3-3-3-3-3-3-3-3-3-|
D|-3--3-3-3-3-3-3-3-3-3-3-3-3-3-3-3-3-|

      . . . . . . . . . . . .


Guitar 1
e|---------------------------------|
B|---------------------------------|
G|---------------------------------|
D|-3---3---------------------------|
A|-------3---3---1-0---1-3---3-1-0-| x3
D|---3-----3---3-----3-----3-------|

Guitar 2
e|------------------------------------|
B|------------------------------------|
G|------------------------------------|
D|-3--3-3-3-3-3-3-3-3-3-3-3-3-3-3-3-3-|
A|-3--3-3-3-3-3-3-3-3-3-3-3-3-3-3-3-3-| x3
D|-3--3-3-3-3-3-3-3-3-3-3-3-3-3-3-3-3-|


Both Guitars
e|-----------------------------------|
B|-----------------------------------|
G|-----------------------------------|
D|---------------3h5p3---------------|
A|-3-33-33-33-33-------3-33-33-33-33-|
D|-3-33-33-33-33-------3-33-33-33-33-|
   . .. .. .. ..       . .. .. .. ..

Outro

Both Guitars
e|--------------------------------------------------------|
B|-------------------------------------------10^(11)10~~--|
G|-----------------------------------3--3-----------------|
D|-3-333333333333333-0---------------3--3-----------------|
A|-3-333333333333333-0-------3-1-0---1--1-----------------|
D|-3-333333333333333-0---0-3-------3----------------------|

The last bend guitar 2 plays e|------13b(15)13~~-----|
                             B|----------------------|
                             G|----------------------|
                             D|----------------------|
                             A|----------------------|
                             D|----------------------|





Comments


Popular Pierce The Veil tabs & chords
King For A Day 2 Bass Tabs
Besitos Chords
Bulletproof Love 6 Chords
Hell Above Chords
Kissing In Cars 1 Chords
A Match Into Water Intro Tabs
Beat It Intro Tabs
Bulls In The Bronx Tabs
Props And Mayhem 4 Tabs
The Boy Who Could Fly 3 Tabs


Song lyrics



↑ Back to top | Tablatures and chords are parodies/interpretations of the original songs. You may use it for private study, scholarship, research or language learning purposes only
© 2014 AZChords.com Contact us | Privacy policy | DMCA | Add/correct tabs | Request tabs | Top 50 tabs