>
 >
Caraphernelia

Caraphernelia Bass Tabs

Pierce The Veil - Caraphernelia chords, tabs, tablatures, lyrics

Guitar lessons | Add/correct | Request | Top 50 tabs Artists:  A B C D E F G H I J K L M N O P Q R S T U V W X Y Z 0-9

Caraphernelia Bass Tabs – Pierce The Veil

CD, Sheet music, Poster

Do you like Caraphernelia? Share with your friends now
Bass TabsChordsChords v2Chords v3Drum TabsTabsTabs v2Tabs v3Tabs v4UkuleleUkulele v2
Tunning:   full step down DGCF

Intro
F|-------------------------------------------------------|
C|-------------------------------------------------------|
G|-4(24x)-3(12x)-----------4(24x)-4/7-3(12x)-------------|
D|---------------4444-7777-------------------9-8-6-4-3-2-|

Verse
F|-----------------------|
C|-3-3-------------------|
G|------3----------------|
D|---------2/8-6-4-6-8---|

F|------------------------------------------|
C|-3-3-3-3-3-3-3--6-5--2-2-2-2--------------|
G|-----------------------------4-3-1--------|
D|-----------------------------------4-3-1--|

F|--------------------------------------------------|
C|--------------------------------------------------|
G|-4(12x)--------8(12x)--11-10-8-7--------4(16x)-3--|
D|--------6(12x)--------------------6(28x)----------|

Chorus
F|----------------------------------------------|
C|-3(12x)----------------3(12x)-------------3-2-|
G|-------3(4x)-------3-3--------3(4x)-----------|
D|-------------6(12x)-----------------6(16x)----|

Pre-verse/Verse
F|----------------------------------|
C|---3~-3~-2~-------------3-3-------|
G|-3--------------------------------|
D|---------------2/8-6-4-8---0-0----|

Chorus
F|-------------------------------------------|
C|-3(12x)----------------3(12x)--------------|
G|-------3(4x)-------3-3--------3(4x)--------|
D|-------------6(12x)-----------------6(16x)-|

Chorus/Bridge
F|------------------------------------------------------------|
C|-3(12x)----------------3(12x)-------------------------------|
G|-------3(4x)-------3-3--------3(4x)-------4-4-4-4--3(8x)-1--|
D|-------------6(12x)-----------------6(12x)------------------|


F|-----------------------|
C|-----------------------|
G|---------8888-7777-----|
D|11-11-11---------------|

Guitar Solo(bass plays this)
F|---------------------------------------------------------|
C|---------8888-7777---------------------------------------|
G|---------------------------------------------------------|
D|11-11-11------------11-11-2\1-1--66-56-6/8\6-5-6-5-2-1---|

F|-------------------------------------------------------|
C|-------------------------------------------------------|
G|---------3333------6666-10101010--8~-3~-1~-1/8~-3~-1~--|
D|11-11-01------0000-------------------------------------|

(3:07-3-20 has no bass but i put in the bass myself so if you want to play it)
F|--------------------------|
C|--------------------------|
G|-88-88-3-11-11--88-88-3---|
D|--------------------------|

F|---------------------|
C|-------3-------------|
G|----------------3-3--|
D|6(16x)----6(16x)-----|

Chorus
F|-----------------------|
C|-3(12x)----------------|
G|-------3(4x)-----------|
D|------------6(16x)-----|

F|---------------------------------------|
C|---------------------------------------|
G|---------------------------------------|
D|11-11-2\1-1--66-56-6/8\6-5-6-5-2-1-----|

F|-----------------------|
C|-3(12x)----------------|
G|-------3(4x)-----------|
D|------------6(16x)-----|


*this is like my first tab so i dont know how to do this things so yeah





Comments


Popular Pierce The Veil tabs & chords
Disasterology Chords
Yeah Boy And Doll Face 2 Chords
Caraphernelia 2 Tabs
Currents Convulsive Intro 1 Tabs
Kissing In Cars 1 Tabs
Props And Mayhem 3 Tabs
The Balcony Scene Tabs
The First Punch Tabs
Tangled In The Great Escape Ukulele
The New National Anthem Ukulele


Song lyrics



↑ Back to top | Tablatures and chords are parodies/interpretations of the original songs. You may use it for private study, scholarship, research or language learning purposes only
© 2014 AZChords.com Contact us | Privacy policy | DMCA | Add/correct tabs | Request tabs | Top 50 tabs