» » »

Pierce The Veil, Bulls In The Bronx Tabs (ver.1)

Artists:  A B C D E F G H I J K L M N O P Q R S T U V W X Y Z # 

Bulls In The Bronx Tabs (ver.1)

Pierce The Veil Tabs
 Rating:
4/5 (4 votes)
Bulls In The Bronx lessons Tabs too difficult? Try these video lessons and learn fast
                This is the first entire tab of the song and this is my first ever tab.Took me two hours to make.
May not be 100% correct. If there are any concerns or changes, write them in the comments

I play it in drop B#




INTRO

|--------------------------------------------------------------------------------------|
|--------------------------------------------------------------------------------------|
|--------------------------------------------------------------------------------------|
|--------------------------------------------------------------------------------------|
|----7-3---3-7---7-3---3-7---5-2---2-5---5-2---2-5---7-3---3-7---7-3---3-7---5-2---2-5-|
|--7-----7-----7-----7-----2-----2-----2-----2-----7-----7-----7-----7-----2-----2-----|

|--------------------------|
|--------------------------|
|--------------10----------|
|--------------10-X8--9----|X5
|----5-2---2-5-8------9----|
|--2-----2------------9----|

Verse 1

|--------------------------------------------------|
|--------------------------------------------------|
|--------------------------------------------------|
|--------------------------------------------------|
|----7-3---3-7---7-3---3-7---5-2---2-5---5-2---2-5-|
|--7-----7-----7-----7-----2-----2-----2-----2-----|

|-------------------------------------------------|
|-------------------------------------------------|
|-------------------------------------------------|
|-------------------------------------------------|
|----7-3---3-7---7-3---3-7---5-2---2-5- //////----|
|--7-----7-----7-----7-----2-----2-----//////-----|

Verse 2


|------------------------------------------------------------------|
|------------------------------------------------------------------|
|------------------------------------------------------------------|
|------------------------------------------------------------------|
|----7ph-3ph---3-7---7ph-3ph---3-7---5ph-2ph---2-5---5ph-2ph---2-5-|
|--7---------7-----7---------7-----2---------2-----2----------2----|

|------------------|
|------------------|
|------------------|
|------------------|   X3
|------------------|
|--3-13~--12-13----|

Chorus

|------------------------------------------------------   }
|------------------------------------------------------   }
|-------------------------------------------10----12---   } X2
|-------------------------------------------10X8--12 X8   }
|----------10-10-10-10-------------7-7-7-7--8-----10---   }
|--7-7-7-7-------------10-10-10-10---------------------   }

|---------------|
|---------------|
|---------------|
|--3-3----6-6---|
|--3-3-X4-6-6---|X4
|--3-3----6-6---|

Verse 3

|--------------------------------------------------|
|--------------------------------------------------|
|--------------------------------------------------|
|--------------------------------------------------|
|----7-3---3-7---7-3---3-7---5-2---2-5---5-2---2-5-|
|--7-----7-----7-----7-----2-----2-----2-----2-----|

|--------------------------|
|--------------------------|
|--------------------------|
|--------------------------|
|----7-3---3-7---7-3---3-7-|
|--7-----7-----7-----7-----|

|--------------------------------------------------|
|--------------------------------------------------|
|--------------------------------------------------|
|--------------------------------------------------|
|----7-3---3-7---7-3---3-7---5-2---2-5---5-2---2-5-|
|--7-----7-----7-----7-----2-----2-----2-----2-----|

|------------------------------|
|------------------------------|
|------------------------------|
|--3xxxx3xxxx----6xxxx6xxxx----|
|--3xxxx3xxxx-X3-6xxxx6xxxx-X2-|
|--3xxxx3xxxx----6xxxx6xxxx----|

Chorus


|------------------------------------------------------   }
|------------------------------------------------------   }
|-------------------------------------------10----12---   } X2
|-------------------------------------------10X8--12 X8   }
|----------10-10-10-10-------------7-7-7-7--8-----10---   }
|--7-7-7-7-------------10-10-10-10---------------------   }

|-----------------------------|
|-----------------------------|
|-----------------------------|
|--3-3-----6-6----7-7--5-5----|
|--3-3-X4--6-6-X3-7-7--5-5----|X4
|--3-3-----6-6----7-7--5-5----|


|-------------------|
|-------------------|
|-------------------|
|--3-3-----6--------|
|--3-3-X4--6-X9-----|
|--3-3-----6--------|

Acoustic Part

|-----------------------------------------|x2
|---5----5---9---9---12---12---13---13----|
|----5----5---7---7---13---13---14---14---|
|-----7----7---9---9---14---14---14---14--|
|-----------------------------------------|
|-----------------------------------------|

|--12------12-11-10-----10------13----13-----12---------------|
|----13--13--------12-----12------12----12-----13----12-13-15-|
|------14------------13-----13------13----13-----14-----------|
|-------------------------------------------------------------|
|-------------------------------------------------------------|
|-------------------------------------------------------------|

         Rake           Rake
        |---|          |------------------------------------------|
|---12----12-15-14-13----13-----10---------10------12-17/////-----|
|-----13-13----------12-12-12-----12--12-13------13---------------|
|-------14-------------13----13-----13---------14-----------------|
|-----------------------------------------------------------------|
|-----------------------------------------------------------------|
|-----------------------------------------------------------------|

|------------|x5
|--13p12p10--|
|------------|
|------------|
|------------|
|------------|

|------------|x5
|--12p11p10--|
|------------|
|------------|
|------------|
|------------|

|------------|x5
|--15p13p12--|
|------------|
|------------|
|------------|
|------------|

|------------|x5
|--17p14p13--|
|------------|
|------------|
|------------|
|------------|

|-\\12-11-10-|x2
|------------|
|------------|
|------------|
|------------|
|------------|

|-----------------------| Guitar 1
|--13-15-13-12----------|
|--------------14-13-14-|
|-----------------------|
|-----------------------|
|-----------------------|


|--12-13-12-10----------| Guitar 2         |----12-13-12-10----------|
|--------------14-13-14-|                  |----------------13-14-15-|
|-----------------------|                  |-------------------------|
|-----------------------|              or  |-------------------------|
|-----------------------|                  |-------------------------|
|-----------------------|                  |-------------------------|

|-------------------------------|
|---19---18--13--12-------------|
|-------------------------------|
|-------------------------------| ALL TREMOLO
|-------------------------------|
|-------------------------------|

Part After Solo

|--8-5-8-5-8-5-8-5-7-4-7-4-7-4-7-4-10-7-10-7-10-7-10-7-8-5-8-5-7-4-7-4-|
|----------------------------------------------------------------------|
|----------------------------------------------------------------------|
|----------------------------------------------------------------------|
|----------------------------------------------------------------------|
|----------------------------------------------------------------------|

ALL PALM MUTED
|-----------------------------|
|-----------------------------|
|-----------------------------|
|--3-3----6-6----7-7----5-5---|
|--3-3-X7-6-6-X7-7-7X11-5-5X4-|
|--3-3----6-6----7-7----5-5---|

|------------------|
|------------------|
|------------------|
|--3-3----6-6----3-|
|--3-3-X7-6-6-X7-3-|X(until chorus starts)
|--3-3----6-6----3-|

chorus


|------------------------------------------------------   }
|------------------------------------------------------   }
|-------------------------------------------10----12---   } X2
|-------------------------------------------10X8--12 X8   }
|----------10-10-10-10-------------7-7-7-7--8-----10---   }
|--7-7-7-7-------------10-10-10-10---------------------   }

|----------------------xx---|
|----------------------xx---|
|----------------------xx---|
|--3-3-----6-----5-----xx---|  X2
|--3-3-X8--6-X8--5-X6--xx---|
|--3-3-----6-----5-----xx---|

|------------------------|
|--13-12-10--------------|
|-----------12-10-12-----|
|------------------- X20-|
|------------------------|
|------------------------|

|----------------|
|----------------|
|----------------|
|--------------3-|
|------5-------3-|
|--5-7---3-5-3-3-|
            
Submit corrections

comments powered by Disqus
↑ Back to top | Pierce The Veil Tabs for Bulls In The Bronx. Lyrics for acoustic guitar and electric guitar. Tablatures and chords are parodies/interpretations of the original songs. You may use it for private study, scholarship, research or language learning purposes only