» » »

Phish, You Enjoy Myself Tabs (ver.2)

Artists:  A B C D E F G H I J K L M N O P Q R S T U V W X Y Z # 

You Enjoy Myself Tabs (ver.2)

Phish Tabs
 Rating:
4/5 (4 votes)
You Enjoy Myself lessons Tabs too difficult? Try these video lessons and learn fast
                (Intro)
----------------------------------------------------------repeat------------
-13-13------------------13---13-13--------------------13--as many-----------
------12--------------12----------12----------------12----as neccessary-----
--------10----------10--------------10------------10------then pause------------------
----------11--11--11------------------11--------11--------------------------
------------10--10----------------------10-13-10----------------------------

-10-13--------------10-7-8-----------10-------------------------------------------
------12----------10------7-10-----10----10----------------------------------------
--------12-------9-----------10---9-----9----------------------------------------
----------11----8-------------10-------8--------------------------------------
------------10-8----------------8-------------------------------------------

It's not alot of it but its a start. It's played very very fast and smooth so
just keep practicing and maybe I will have more of it up later.
~Jeff Ryan~
            
Submit corrections

comments powered by Disqus
↑ Back to top | Phish Tabs for You Enjoy Myself. Lyrics for acoustic guitar and electric guitar. Tablatures and chords are parodies/interpretations of the original songs. You may use it for private study, scholarship, research or language learning purposes only