» » »

Weekapaug Groove Bass tabs (ver.1)

Artists:  A B C D E F G H I J K L M N O P Q R S T U V W X Y Z # 

Weekapaug Groove Bass tabs (ver.1)

Phish
Rating:
0/5 (0 votes)

Hard to play? Try these video lessons and learn fast.
                Phish - Weekapaug Groove

 just jam anything u want with this...

g|------7------5------5--------------------------|
d|--------5h-7-----------------------------------|
a|--5------------3---3-3-------------------------|
e|-----------------------------------------------|

 just before the guitar comes in...

g|------7--------10------12-------15----16----17-|
d|-----------------------------------------------|
a|--5-----5/8--8---8--10---10-1313--1414--1515---|
e|-----------------------------------------------|

 back to first riff
            
Hard to play? Try these video lessons and learn fast. | Correct




comments powered by Disqus
↑ Back to top | Tablatures and chords are parodies/interpretations of the original songs. You may use it for private study, scholarship, research or language learning purposes only