» » »

Phish, Simple Tabs (ver.1)

Artists:  A B C D E F G H I J K L M N O P Q R S T U V W X Y Z # 

Simple Tabs (ver.1)

Phish Tabs
 Rating:
4/5 (4 votes)
Simple lessons Tabs too difficult? Try these video lessons and learn fast
1
                


h = hammer on

intro

-------------------|
-------------------|
---------------2---|  12x
---3---3---------3-|
---------1h2h3-----|
-1-----------------|

verse one
-------------------|
-------------------|
---------------2---|
---3---3---------3-|  2x
---------1h2h3-----|
-1-----------------|

-------------------|
-------------------|
---------------3---|
---3---3---------3-| 2x
---------1h2h3-----|
-1-----------------|

-------------------|
-------------------|
---------------2---|
---3---3---------3-|  3x
---------1h2h3-----|
-1-----------------|

verse 2 same as verse 1

chorus

-------------------|
-------------------|
---------------2---|
---3---3---------3-|  2x
---------1h2h3-----|
-1-----------------|

-------------------|
-------------------|
---------------5---|
---3---3---------3-|
---------1h2h3-----|
-1-----------------|

-------------------|
-------------------|
---------------4---|
---3---3---------3-|
---------1h2h3-----|
-1-----------------|

---
---
---
---
---
-1-

-------------------|
-------------------|
---------------2---|
---3---3---------3-|  4x
---------1h2h3-----|
-1-----------------|

verse 3 same as verse 1
verse 4 same as verse 1
chorus

bridge
-------------------|
-------------------|
---------------2---|
---3---3---------3-|  8x
---------1h2h3-----|
-1-----------------|

strum a bit
----
--3-
--3-
--3-
--3-
-1--

-------------------|
-------------------|
---------------2---|
---3---3---------3-|  8x
---------1h2h3-----|
-1-----------------|

verse 5 same as verse 1
verse 6 same as verse 1
chorus
bridge 2x
            
Submit corrections

comments powered by Disqus
↑ Back to top | Phish Tabs for Simple. Lyrics for acoustic guitar and electric guitar. 1 Tablatures and chords are parodies/interpretations of the original songs. You may use it for private study, scholarship, research or language learning purposes only