» » »

Phish, Roses Are Free Tabs (ver.1)

Artists:  A B C D E F G H I J K L M N O P Q R S T U V W X Y Z # 

Roses Are Free Tabs (ver.1)

Phish Tabs
Rating:
0/5 (0 votes)
Roses Are Free lessons Tabs too difficult? Try these video lessons and learn fast
                No ones posted any Roses are Free tabs yet. Its an excellent song and i thought it needed a few props. Intro is a bar chord and then power chords on the second string. If you listen to the song you can figure out the rhythm.

Riff 1
e[------6-6------6-6-------------------------------------------------------]
B[------6-6------6-6-------------------------------------------------------]
G[------7-7------7-7------10-10----10-10-----8-8------8-8------8-8-8-8-8-8-]
D[------8-8------8-8------10-10----10-10-----8-8------8-8------8-8-8-8-8-8-]
A[------8-8------8-8--8-8-8--8--8-8-8-8--6-6-6-6--6-6-6-6--6-6-6-6-6-6-6-6-]
E[--6-6-6-6--6-6-6-6-------------------------------------------------------]

Take a piece of tinsel and put it on the tree
Cut a slab of melon and pretend that you still love me
Carve out a pumpkin and rely on your destiny
Get in your car and cruise the land of the brave and free

Riff 2
e[--1-1-1-1--3-3-3-3--4-4-4-4--5-5-5--6---6-6...]
B[--1-1-1-1--3-3-3-3--4-4-4-4--5-5-5--6---6-6...]
G[--2-2-2-2--4-4-4-4--5-5-5-5--6-6-6--7---7-7...]
D[--3-3-3-3--5-5-5-5--6-6-6-6--7-7-7--8---8-8...]
A[--3-3-3-3--5-5-5-5--6-6-6-6--7-7-7--8---8-8...]
E[--1-1-1-1--3-3-3-3--4-4-4-4--5-5-5--6---6-6...]

But don't forget to understand exactly what you put on the tree
Don't believe the florist when he tells you that the roses are free

[Riff 1]
Take a wrinkled raisin, and do with it what you will
Push it into third if you know you're gonna climb that hill
Eat plenty of lasagna 'til you know that you've had your fill
Resist all the urges that make you wanna go out and kill

[Riff 2]
But don't forget to understand exactly what you put on the tree
Don't believe the florist when he tells you that the roses are free

(Piano and Bass Bridge)

Solo/Background later
e[-------------------------------------------------------------]
B[-------------------------------------------------------------]
G[--7b-5-3-0---5--3-0--5-3-0-----0-----0---3--7-7-5-5-3-3-0-0--]
D[-----------3---------------3h5---3h5---3---------------------]
A[-------------------------------------------------------------]
E[-------------------------------------------------------------]
(Repeat 4 times)

e[-----------------------------------6-6-6-6...]
B[-----------------------------------6-6-6-6...]
G[-----2-------4-------5-------6-----7-7-7-7...]
D[-----------------------------------8-8-8-8...]
A[--3----3--5----5--6----6--7----7---8-8-8-8...]
E[-----------------------------------6-6-6-6...]
(Repeat 2 times)

e[--1--1-1--3--3-3--4--4-4--5--5-5--6-6-6-6...]
B[--1--1-1--3--3-3--4--4-4--5--5-5--6-6-6-6...]
G[--2--2-2--4--4-4--5--5-5--6--6-6--7-7-7-7...]
D[--3--3-3--5--5-5--6--6-6--7--7-7--8-8-8-8...]
A[--3--3-3--5--5-5--6--6-6--7--7-7--8-8-8-8...]
E[--1--1-1--3--3-3--4--4-4--5--5-5--6-6-6-6...]
(Repeat 2 times)

[Riff 1] (Intertwined with the solo, listen and you'll see)
Throw that pumpkin at the tree
Unless you think that pumpkin holds your destiny
Cast it off into the sea
Bake that pie and eat it with me
Throw that pumpkin at the tree
Unless you think that pumpkin holds your destiny
Cast it off into the sea
Bake that pie and eat it with me

This was my first tab. Its probably a little rough. This is the way i like to play it. If you want to change a few parts of the solo, then that will probably sound the same but would be tabbed differently.
            
Submit corrections

comments powered by Disqus
↑ Back to top | Phish Tabs for Roses Are Free. Lyrics for acoustic guitar and electric guitar. Tablatures and chords are parodies/interpretations of the original songs. You may use it for private study, scholarship, research or language learning purposes only