» » »

Rift Tabs (ver.1)

Artists:  A B C D E F G H I J K L M N O P Q R S T U V W X Y Z # 

Rift Tabs (ver.1)

Phish
Rating:
0/5 (0 votes)

Hard to play? Try these video lessons and learn fast.
                transcribed on April 18,1995
tab version 1.0

Notes on version 1.0
IUve tried my hardest, but without ever seeing Phish
in concert the fingering is based on what I feel is
confortable to play.

notation ledgend
xBy = bend note x untill it sounds like note y
/ = slide
\ = slide

main riff
-------------------------------------|
-------------------------------------|
-----0-0-0-0------0-0--0-0-----------|
-4\5----------4\5--------------------|
-------------------------------------|
-------------------------------------|

chords
Eb/G F/A  C   E   D   G   F   C#
---  --- --- --- --- --- --- ---
-4-  -6- -5- -9- -7- -3- -1- -6-
-3-  -5- -5- -9- -7- -4- -2- -6-
-5-  -7- -5- -9- -7- -5- -3- -6-
---  --- --- --- --- --- --- ---
---  --- --- --- --- --- --- ---

verse one
(main riff) Eb/G
(main riff) Eb/G F/A
Eb/G F/A
Eb/G
(main riff)

verse two
(main riff) Eb/G
(main riff) Eb/G F/A
Eb/G F/A
Eb/G
(main riff)

first guitar solo (chords indicate overall tonality)

G
-15-----------------------------------|
-18b----------------------------------|
--------------------------------------|
-----\5--------7/9--7-5-----7/9--7-5--|
------------5-------------5-----------|
--------------------------------------|
finger      1  3    3 1   1 3    3 1

Eb/G
----------------------------------------|
----------------------------------------|
----------------------------------------|
-----5-5-5-----5-7-(7)\8-7-5-----8-7-5--|
-6-6---------6----------------6---------|
----------------------------------------|
finger       2 1 3 3     3 1  2  3 3 2

G
------15-----------------------------|
------18b----------------------------|
-------------------------------------|
-\5-----------7/9--7-5-----7/9--7-5--|
------------5-----------5------------|
-------------------------------------|

Eb/G
------------------------------------------|
------------------------------------------|
------------------------------------------|
-----5-5-5-----5-7-(7)\8-7-5-----8-7-5----|
-6-6---------6----------------6---------6-|
------------------------------------------|

F/A
---------------------------------------|
---------------------------------------|
---------------------------------------|
---7-7-7-----8\10-8-7---8\10-8-7-------|
-8---------8----------8----------8-----|
---------------------------------------|
finger     2 2    2 1 2 2    2 1 2

Eb/G
------------------------------------------|
------------------------------------------|
------------------------------------------|
-----5-5-5-----5-7-(7)\8-7-5-----8-7-5----|
-6-6---------6----------------6---------6-|
------------------------------------------|

F/A
---------------------------------------|
---------------------------------------|
---------------------------------------|
---7-7-7-----8\10-8-7---8\10-8-7-------|
-8---------8----------8----------8-----|
---------------------------------------|

Bb
------------------------------------|
------------------------------------|
-\3----5\7-5-3-----5\7-3------------|
-----3---------3----------3---------|
------------------------------------|
------------------------------------|

Eb
------------------------------------|
------------------------------------|
-8--8-8-8-----8-7-5----8-7-5--------|
-----------8--------8--------8------|
------------------------------------|
------------------------------------|

Bb
--------------------------------------|
--------------------------------------|
-\3----5\7-5-3-----5B-5-3-------------|
----3---------3----------3------------|
--------------------------------------|
--------------------------------------|

Eb
------------------------------------|
------------------------------------|
-8--8-8-8-----8-7-5----8-7-5--------|
-----------8--------8--------8------|
------------------------------------|
------------------------------------|

Ab
------------------------------------|
------------------------------------|
----\10-8--8-7-5----8-7-5-----------|
-6---------------6------------------|
------------------------------------|
------------------------------------|

G
--------------------------------------|
--------------------------------------|
-12--12-14/16-14-12-----14\16-14-12---|
--------------------12----------------|
--------------------------------------|
--------------------------------------|

Eb/G
------------------------------------|
------------------------------------|
----12-12-12-----12-14-15-14-12-----|
-13-----------13----------------13--|
------------------------------------|
------------------------------------|

G
-------------------------------------|
-------------------------------------|
-12--12-14/16-14-12-----14/16-14-12--|
-------------------12----------------|
-------------------------------------|
-------------------------------------|

Eb/G
------------------------------------|
------------------------------------|
----12-12-12-----12-14-15-14-12-----|
-13-----------13----------------13--|
------------------------------------|
------------------------------------|

F/A
------------------------------------|
------------------------------------|
----14-14-14-----14-15-17-15-14-----|
-15-----------15----------------15--|
------------------------------------|
------------------------------------|

Eb/G
------------------------------------|
------------------------------------|
----12-12-12-----12-14-15-14-12-----|
-13-----------13----------------13--|
------------------------------------|
------------------------------------|

F/A
------------------------------------|
------------------------------------|
----14-14-14-----14-15-17-15-14-----|
-15-----------15----------------15--|
------------------------------------|
------------------------------------|

Bb
-------------------------------------------|
-------------------------------------------|
-\15--15-17/18-17-15-------17/18-17-15-----|
-----------------------15--------------15--|
-------------------------------------------|
-------------------------------------------|

Eb
------------------------------------------|
------------------------------------------|
-20--20-20-20-----20-19-17----20-19-17----|
--------------20-----------20----------20-|
------------------------------------------|
------------------------------------------|

Bb
----------------------------------------|
----------------------------------------|
-\15--15-17/19-17-15------17/19-17-15---|
----------------------15-------------15-|
----------------------------------------|
----------------------------------------|

Eb
------------------------------------------|
------------------------------------------|
-20--20-20-20-----20-19-17----20-19-17----|
--------------20-----------20----------20-|
------------------------------------------|
------------------------------------------|

Ab
------------------------------------|
------------------------------------|
----\22-20--20-19-17----20-19-17----|
-18------------------18-------------|
------------------------------------|
------------------------------------|


------------------------------------|
------------------------------------|
----19-18-16-----19-18-16-----------|
-17-----------17--------------------|
------------------------------------|
------------------------------------|

------------------------------------|
------------------------------------|
----19-18-16-----19-18-16-----------|
-17-----------17--------------------|
------------------------------------|
------------------------------------|

------------------------------------|
-17---17-15-14-----17-15-14-15------|
------------------------------------|
------------------------------------|
------------------------------------|
------------------------------------|


-14--14--14-12-11--16-14-12---16-14-12-|
---------------------------------------|
---------------------------------------|
---------------------------------------|
---------------------------------------|
---------------------------------------|


-17-16-14---19-17-16---21-19-17---22-21-19----|
----------------------------------------------|
-------------------------------------------\9-|
----------------------------------------------|
----------------------------------------------|
----------------------------------------------|

Piano solo
C E C D C D G C G C F

at this point the piano plays the bridge to the
second guitar solo Trey plays some initeresting
chords that are almost compleatly burried in the
background, sorry i donUt know what they are

second guitar solo

------------------------------------|
------------------------------------|
------- comming soon ---------------|
------------------------------------|
------------------------------------|
------------------------------------|

verse three
(these chords are strummed unlike the first two verses)
C#-->G
G Eb/G
G Eb/G F/A--> tacet
Eb/g
F/A
Eb/g
G   Eb/G 8x

------------------------------------
ending solo comming soon
            
Hard to play? Try these video lessons and learn fast. | Correct




comments powered by Disqus
↑ Back to top | Tablatures and chords are parodies/interpretations of the original songs. You may use it for private study, scholarship, research or language learning purposes only