» » »

Phish, Mike's Song Tabs (ver.3)

Artists:  A B C D E F G H I J K L M N O P Q R S T U V W X Y Z # 

Mike's Song Tabs (ver.3)

Phish Tabs
 Rating:
4/5 (4 votes)
Mike's Song lessons Tabs too difficult? Try these video lessons and learn fast
                "(2)
Verse 1
E ----------------------------------------9--------------------------------9-|
B ----------------------------------------9--------------------------------9-|
G --------------------------9h11----------9-------------------9h11---------9-|
D ---------------------9-11-0----9h11-11~------------------9-11-0----9h11----|
A --------x-9-x-9-10-11----------0---------x-9-x-9-10-11----------0----------|
E -9-9-12--------------------------------9--------------------------------9--|

Pre-chorus
E --------------------------------|
B --------------------------------|
G --------------------------------|
D -9-strum or 11p9h11p9h11p9------|
A -0----------0-------------------|
E --------------------------------|

chorus
E -----------------------------------------|
B -9-9-x-x-9h10-10-10-9-9/7-7-x-x-x-9------|
G -9-9-x-x-9----9--9--9-9/7-7-x-x-x-8------|
D -9-9-x-x-9h11-11-11-9-9/7-7-x-x-x-7------|
A -7-7-x-x---------------------------------|
E -----------------------------------------| X 3

chorus back to verse 1
E ----------------------------7-8------|
B -9-9-x-x-9h10-10-10-9-9/7-7-7-8------|
G -9-9-x-x-9----9--9--9-9/7-7-8-9------|
D -9-9-x-x-9h11-11-11-9-9/7-7-9-10-----|
A -7-7-x-x--------------------9-10-----|
E ----------------------------7-8------|

back to verse 1

then to chorus but dont go back to verse one, just keep repeating until the

E --------|
B -9-7----|
G -9-7----|
D -9-7----|
A --------|
E --------| X 4

Chorus

E --------|
B -9-7----|
G -9-7----|
D -9-7----|
A --------|
E --------| X 8

Chorus

E --------|
B -9-7----|
G -9-7----|
D -9-7----|
A --------|
E --------| X 10

THEN

E --2---|
B --2---|
G --2---|
D --4---|
A --4---|
E --2---|


Trey does this on the MSG 12/31/95 version (by the way best version of mikes song and 
enjoy myself ever)

E --------------------------------------------------|
B --------------------------------------------------|
G --------------------------------------------------|
D -----------------------------------4-4-2-2--------|
A -------------------0-2---------------------4-4-2--|
E -2-x-x-2-x-x-2-2-2-----2-x-x-2-x-x----------------| repeat as many times as you want

Solo in F#m.
"            
Submit corrections

comments powered by Disqus
↑ Back to top | Phish Tabs for Mike's Song. Lyrics for acoustic guitar and electric guitar. Tablatures and chords are parodies/interpretations of the original songs. You may use it for private study, scholarship, research or language learning purposes only