» » »

Harry Hood Chords (ver.1)

Artists:  A B C D E F G H I J K L M N O P Q R S T U V W X Y Z # 

Harry Hood Chords (ver.1)

Phish
Rating:
0/5 (0 votes)
Tabs too difficult? Try these video lessons and learn fast.
                
I'm a dunce about music and can't read worth a darn... I can't give you note
or chord names so I numbered the chord configurations... sorry if this is
annoying but once you get used to the chords (and the rhythm) you'll be able
to play the song.

Listen to the song to get the rhythm.


#1 #2 (x4)
#3 #4 (x4) #2 (let ring)


#1       #4       #2    (repeat the way the song goes)
harry..  harry..  where do you go when the lights go out?
#1       #4       #2                       #5 #6 #7
harry..  harry..  where.... do.... you.... go??????????

#8 #4 #9 (x2)
#5 #6 #7 (x2)
#8 #4 #9
#8 #4  then see "Closeup A"

Closeup A:

<=touch on
=touch off
/=slide up
\=slide down


E---0------0-------0---x----x------0----------|
B---0------0-------0---x----x------0----------|
G---6<7>6--9/11\9--6---9>7--13>11--6<7>6------|
D---7------7/9-\7--7---x----x------7----------|
A---0------0-------0---7----11-----0----------|
E---0------0-------0---0----0------0----------|

#11 #12 #13 #12 (x3)
#11 #12 #11 #14

A  D  E
pattern
(listen to the song)
It's building exitement part that returns later into "Closeup A"
and then goes into the angry distortion part.

I havn't figured out the angry distortion part yet... sorry.


Chords:

---#1----#2---#3----#4----#5---#6---#7---#8----#9----#10--#11--#12--#13--#14

E--x-----x----10----x-----0----0----0----x-----x-----0----0----0----0----0--
B--10----5----10----12----0----0----0----12----14----0----0----0----0----0--
G--10----5----10----12----7----6----9----12----14----6----4----2----0----5--
D--10----5----x-----12----7----7----7----12----14----7----5----4----2----6--
A--x-----x----12----x-----5----5----0----10----x-----0----0----0----0----0--
E--10----5----13----12----x----x----x----x-----14----0----0----0----9----0--


Andrew Clemmer

"This isn't who it would be if it wasn't who it is"

(302)-837-2415
            
Tabs too difficult? Try these video lessons and learn fast.


comments powered by Disqus
↑ Back to top | Tablatures and chords are parodies/interpretations of the original songs. You may use it for private study, scholarship, research or language learning purposes only