» » »

Gumbo Tabs (ver.1)

Artists:  A B C D E F G H I J K L M N O P Q R S T U V W X Y Z # 

Gumbo Tabs (ver.1)

Phish
Rating:
0/5 (0 votes)

Hard to play? Try these video lessons and learn fast.
                

 Gumbo-by Phish

 Intro-I'm not sure if the intro is single note, or pieces of chords, but
 I'll write it out as if it's chord pieces, and if you don't like how it
 sounds, then just play the bass note.

 E-----------------------------------------------------------------------|
 A-5--5--0--0--0--3--4--5--5--5--8--8--8--12--12--5--5-----------5-------|
 d-7--7--2--2--2--5--6--7--7--7--10-10-10-14--14--7-----7--7--5--7-------|
 G-7--7--2--2--2--5--6--7--7--7--10-10-10-14--14--7--------7--5--7-------|
 B---------------------------------------------------------6--5--6-------|
 E-----------------------------------------------------------------------|

 Verse/Chorus-These two are the same-the chords don't change for the rest
 of the song.

 Dm7  G7  C7  Dm7

 Chords are played like this:
 Dm7                  G7                      C7
 E--------------------3------------------------------------------|
 A-5------------------5-----------------------3------------------|
 D-7------------------3-----------------------5------------------|
 G-5------------------4-----------------------3------------------|
 B-6------------------3-----------------------5------------------|
 E-5------------------3-----------------------3------------------|
            
Hard to play? Try these video lessons and learn fast. | Correct




comments powered by Disqus
↑ Back to top | Tablatures and chords are parodies/interpretations of the original songs. You may use it for private study, scholarship, research or language learning purposes only