» » »

Fee Bass tabs (ver.1)

Artists:  A B C D E F G H I J K L M N O P Q R S T U V W X Y Z # 

Fee Bass tabs (ver.1)

Phish
Rating:
5/5 (1 vote)

Hard to play? Try these video lessons and learn fast.
                -------------------------------------------------------------------------------
-------------------------------------------------------------------------------


Verse:
G|-----0--------------------------------1----------------|
D|---1-------1------3-------------2---2------------------|
A|-3-------2----1-4-----0-4---0-4---4------------6-------|
E|-------4------------2--------------------4--4-----4--4-|

Chorus:
G|-----3------------1------------3-------------------|
D|---5-------3----3-------1----5-------3-----0-----1-|
A|-6-------5----4-------3----6-------5-----2-----3---|
E|-------6------------4------------6-----3-----4-----|

Piano solo: 
G|---------------------|
D|----------1----------|
A|-3--1-----------3--1-|
E|-------4-----1-------|

===============================================================================
            
Hard to play? Try these video lessons and learn fast. | Correct




comments powered by Disqus
↑ Back to top | Tablatures and chords are parodies/interpretations of the original songs. You may use it for private study, scholarship, research or language learning purposes only