» » »

Farm House Bass tabs (ver.1)

Artists:  A B C D E F G H I J K L M N O P Q R S T U V W X Y Z # 

Farm House Bass tabs (ver.1)

Phish
Rating:
5/5 (1 vote)

Hard to play? Try these video lessons and learn fast.
                /=slide up

Well here goes:

Intro:

G|----------------------------------------------------------------|
D|----------------------------------------------------------------|
A|--3--------------3-------3------3--------------3-------3--------|
E|----3-3--5--1-1-----3-3-----3/----3-3--5--1-1-----3-3-----3-----|

Bridge:

G|--------------------2--4-5--------------------------------------|
D|--------------2--5----------------------------------------------|
A|-----2--3--5----------------------------------------------------|
E|--5-------------------------------------------------------------|

Chorus/Verse:

G|----------------------------------------------------------------|
D|----------------------------------------------------------------|
A|--3-------------------------------------------------------------|
E|-----3--5--1----------------------------------------------------|

and yeah, that's about it. It's an easy song, most Phish songs are. Listen to the sng 
the really technical stuff.

Enjoy!
            
Hard to play? Try these video lessons and learn fast. | Correct




comments powered by Disqus
↑ Back to top | Tablatures and chords are parodies/interpretations of the original songs. You may use it for private study, scholarship, research or language learning purposes only