>
 >
Driver

Driver Chords

Phish - Driver chords, tabs, tablatures, lyrics

Guitar lessons | Add/correct | Request | Top 50 tabs Artists:  A B C D E F G H I J K L M N O P Q R S T U V W X Y Z 0-9

Driver Chords – Phish

CD, Sheet music, Poster

Do you like Driver? Share with your friends now
ChordsUkulele
Driver     by phish

e-|-------3-3--0-------------------------3-3------------------------|
B-|-0~1-3-----0-3~-3-0-5-0-5-0-3~--0~1-3-----0-5p3~-3-0-1---(1)-----|
G-|------------------------------------------------------000--0000--|
D-|-----------------------------------------------------------------|
A-|-----------------------------------------------------------------|
E-|-----------------------------------------------------------------|

G                                   C               G
I'll tell you 'bout the driver that lives inside my head
G                C            Em           D
starts me up and stops me and puts me into bed
G                             C              G
he opens up my mouth when its time for me to talk
G               C                        G
and fires up my legs when he wants me to walk

Chorus:
C-riff
C             G     C               G
Keeps my eyes open  for most of the day
C          G          Em            D
adds to my memory the things people say
C               G        C               Em
when he makes decisions  I don't have to wait
C                                                    G
and sometimes it seems that he's got too much on his plate

Like this morning when I woke up and he dressed me in this shirt
it looks a little ragged when he dragged me through the dirt
I'm moving through this life and I'm thinking 'bout the next
I'm hoping when I get there I'll be better dressed

Chorus repeated with last line replaced with:
G
I'll tell you 'bout the driver
C                    G
that lives inside my head

C-riff
e|---------|
B|---------|
G|---------|
D|---------|
A|---0-2-3-|
E|-3-------|


alternative intro/verse
e|------------------------3--3----------------------------------|
B|-0--------1----3--------------------1-0^3--------------------|
G|------------0-----------0-------------------------------------|
D|----0-------------0-----------2-----2-----0-----0-----0-----0-|
A|---------------------------3-----3----------------------------|
E|-3-----3-------3-----3-----------------3-----3-----3-----3----|


e|-------------0----------0-------------------------------------|
B|-3-----0-----------1----------0-------3-----3-----3-----3----|
G|---------------------------------------2-----2-----2-----2----|
D|----0-----0-----2-----2----2-----2--0-----------0-------------|
A|-------------3-----3----------------------0-----------0-------|
E|-3-----3----------------0-----0-------------------------------|

e|------------------------3--3----------------------------------|
B|-0--------1----3--------------------1-0^3--------------------|
G|------------0-----------0-------------------------------------|
D|----0-------------0-----------2-----2-----0-----0-----0-----0-|
A|---------------------------3-----3----------------------------|
E|-3-----3-------3-----3-----------------3-----3-----3-----3----|

e|-------------------------------------------------------3------|
B|-3---3----3----0--1-----3-----3---1-----3-----3--------------|
G|--------------------------------------------------------------|
D|---0--------0--------2----------2-----2-------------2---------|
A|---------------0--3--------3-------3--------3----------2------|
E|-3-----3-----------------------------------------------3------|

e|---------|
B|---------|
G|---------|
D|---------|
A|---0-2-3-|
E|-3-------|





Comments


Popular Phish tabs & chords
Ac Dc Bag Chords
Billy Breathes Chords
Free Chords
Stealing Time From The Faulty Plan Chords
Dinner And A Movie Tabs
Get Back On The Train Tabs
Roses Are Free 1 Tabs
Suzy Greenburg Tabs
Talk Tabs
Ya Mar Tabs


Song lyrics



↑ Back to top | Tablatures and chords are parodies/interpretations of the original songs. You may use it for private study, scholarship, research or language learning purposes only
© 2014 AZChords.com Contact us | Privacy policy | DMCA | Add/correct tabs | Request tabs | Top 50 tabs