» » »

Phish, Down With Disease Tabs (ver.2)

Artists:  A B C D E F G H I J K L M N O P Q R S T U V W X Y Z # 

Down With Disease Tabs (ver.2)

Phish Tabs
 Rating:
4.3/5 (6 votes)
Down With Disease lessons Tabs too difficult? Try these video lessons and learn fast
1
                Band: Phish


Intro               After the 3rd time, add   
                    F & G To the end                    
         D7#9     F   G           D7#9      F   G
-x---x---x--------1---3----x---x---x--------1---3           
-x---x---6--------1---3----x---x---6--------1---3    
-x---x---5--(3X)--2---4----x---x---5--(3X)--2---4       
-x---x---4--------3---5----x---x---4--------3---5
-x---x---5--------3---5----x---x---5--------3---5
-x---x---x--------1---3----x---x---x--------1---3

Let A Sustain
  A
--0--
--2--
--2--
--2--
--0-- 
--0--


(Repeat Intro)


(Repeat Intro, But Leave Off F & G, And Add C7,B7,E7
  C7    B7    E7  
-x------x-----x----
-x------x-----x----    
-5------4-----3----
-4------3-----2----
-5------4-----3----
-x------x-----x----

Chorus:

A A A A G G D D       (Whole Thing  
G G D D G G D D          3x)



Repeat All Of Above 1 Time, Then After Chorus Add:

C C D D C C D D    (Whole Thing
C C D D E             2x)


SOLO:

---------------------------------------------
---14-14----14---15--------------------------
---14-14h16-14---16b18--16r14-15-15----------
---14-14----14-------------------------------
---------------------------------------------
---------------------------------------------

Signature Solo Lick

------14-15-15-15-15-------
---15----------------15-15-
---------------------------
---------------------------
---------------------------
---------------------------

------14-15-15-15-15--------17b19--17
---15----------------15-15-----------
-------------------------------------
-------------------------------------
-------------------------------------
-------------------------------------
Thats All, If You Like It Use It, If Not Don't Use It.

If You Understand Everything I Said,Youd Be Me ~Miles 
            
Submit corrections

comments powered by Disqus
↑ Back to top | Phish Tabs for Down With Disease. Lyrics for acoustic guitar and electric guitar. 1 Tablatures and chords are parodies/interpretations of the original songs. You may use it for private study, scholarship, research or language learning purposes only