» » »

Phish, Dirt Bass tabs (ver.2)

Artists:  A B C D E F G H I J K L M N O P Q R S T U V W X Y Z # 

Dirt Bass tabs (ver.2)

Phish Tabs
Rating:
0/5 (0 votes)
Dirt lessons Tabs too difficult? Try these video lessons and learn fast
                This is my interpretation for the bass instrument of this song I'm not breaking any
or bull@%$@ like that so get the $#%@ over it.

Lol.

This is the whole song, it repeats a lot so don't be afraid of the lengthyness off this 
Thx.


This is all in order don't worry. I did this by ear so, but I tried to perfect it.

I'm not putting in any fills just make your own... because Phish never plays the same
all the time on live.

()= optional- you can play this or not, doesn't matter

Wait till 0:29
Intro-Hold the 5 down for a bit... listen to the song and you'll understand
g----------------------|
d----------------------|
a---7---3---5----------|
e----------------------|

verse
g-------------------------------|
d-------------------------------|
a--3--(3)-----5--(5)------------|
e-------3-3--------5-5----------|x3

g---------------|
d---------------|
a--3--(3)-------|
e-------3-3-----|

The 7-3-5 is like the intro but after you play the 5 you do the (5) 5-5--| like in the verse.
g------------------------------------------------------------------------|
d------------------------------------------------------------------------|
a---7---3---5--(5)-------------------------------------------------------|
e-----------------5--5---------------------------------------------------|

g-------------------------------|
d-------------------------------|
a--3--(3)-----5--(5)------------|
e-------3-3--------5-5----------|x3

g---------------|
d---------------|
a--3--(3)-------|
e-------3-3-----|

Hold down that 5 again here comes the guitar solo.
g---------------|
d---------------|
a---7---3---5---|
e---------------|

g-------------------------------|
d-------------------------------|
a--3--(3)-----5--(5)------------|
e-------3-3--------5-5----------|x3

g---------------|
d---------------|
a--3--(3)-------|
e-------3-3-----|

Bass Solo- This bass solo is not that hard to learn, just listen to it in the song and 
to keep pace.
7-3 is like the intro
p= pause(for a bit like 3-4 seconds)
e= Let go of the fret after you hit it. (LISTEN to the song carefully)
g---------|-----------------------------------------------------------|
d---------|-------19--19-19--17-16-17-19-p--19-17-16--19e-17-16-------|
a--7--3/--|-17-17--17---------------------17-------17-----------------| Continue below
e---------|-----------------------------------------------------------|

g------------------------------|
d--------17-16-------17-16-----|
a-17---17-----17---17-----17---|
e------------------------------|Do the solo in the Lines x2!

Right after the bass solo
g------------|
d------------|
a--7--5----5-|
e------7--4--|

g-----7-|
d-------|
a--5----|
e-------|x8

g-----7-|
d----7--|
a-5-5---|
e-------|x7

Alright So bear with me but right after this part the fill to the next part down, this
is hard to hear, and there is one not I'm not so sure about so I'm not going to post this
sorry. It lasts like 3 seconds though so its not that bad.

Anyways

g--------------|
d--------------|
a--(5)---------|
e------5--5----|

g-------------------------------|
d-------------------------------|
a--3--(3)-----5--(5)------------|
e-------3-3--------5-5----------|x3

g---------------|
d---------------|
a--3--(3)-------|
e-------3-3-----|

g----
d----
a--7-
e----

g--------------|
d--------------|
a--(5)---------|
e------5--5----|

g-------------------------------|
d-------------------------------|
a--3--(3)-----5--(5)------------|
e-------3-3--------5-5----------|x3

g---------------|
d---------------|
a--3--(3)-------|
e-------3-3-----|

Fin
g--------|
d--------|
a--7---3-|
e--------|

Thanks hope you liked it
            

comments powered by Disqus
↑ Back to top | Phish Bass for Dirt. Lyrics for acoustic guitar and electric guitar. Tablatures and chords are parodies/interpretations of the original songs. You may use it for private study, scholarship, research or language learning purposes only