>
 >
Dirt

Dirt Guitar Tabs

Phish - Dirt chords, tabs, tablatures, lyrics

Guitar lessons | Add/correct | Request | Top 50 tabs Artists:  A B C D E F G H I J K L M N O P Q R S T U V W X Y Z 0-9

Dirt Guitar Tabs – Phish

CD, Sheet music, Poster

Do you like Dirt? Share with your friends now
Bass TabsBass Tabs v2ChordsTabsTabs v2Tabs v3Ukulele
-------------------------------------------------------------------------------
-------------------------------------------------------------------------------


Dsus2  Am  C  G   (x4)
Em  C
{repeated throughout song}

(Whistling intro,
Never hear your voice again...)

I'd like to live beneath the dirt
A tiny space to move and breathe is all that I would ever need
I want live beneath the dirt
where I am free from push and shove like all those swarming up above
beneath your heals I'll spend my time
I'll wiggle in the earth and dew
and somtimes I will think of you

And if you ever think of me
Kneel down and kiss the earth
and show me what this thought is worth

Solo:
E----------------------------------------------------------------|
B----------------------------------------------------------------|
G----14--14-14--12-11--12--14~~---------14-12-11--/14-12-11------|
D-12---12-----------------------------12--------12----------12---|
A----------------------------------------------------------------|
E----------------------------------------------------------------|

E---------------------------------|
B---------------------------------|
G----/12--12--11---------/12-11---|
D-12----12-------12---12-------12-|
A---------------------------------|
E---------------------------------|

e----------------------------------------------------------------------|
B--22-22-22--20-19-20-22~~-22-20-19--/22-20-19-----/20-19-----/20-19---|
G-19----------------------19-------------------19-19----19--19-----19--|
D----------------------------------------------------------------------|
A----------------------------------------------------------------------|
E----------------------------------------------------------------------|

___________
ending

E----14---14--14-----12---12--12-----12---12--12-----10---10--10-----10---10--10-----8---8---8---|
B---15-15--15--15---13-13--13--13---13-13--13--13---12-12--12--12---10-10--10--10--10-10--10--10-|
G--14---14--14--14-14---14--14--14-12---12--12--12-12---12--12--12-11---11--11--11-9---9---9---9-|
D-0---------------0---------------0---------------0---------------0---------------0--------------|
A------------------------------------------------------------------------------------------------|
E------------------------------------------------------------------------------------------------|

E----8--8--8-----7--7--7------5--5--5-----5--5--5-------3--3--3-----3--3--3---|
B---8-8--8--8---8-8--8--8----7-7--7--7---5-5--5--5-----5-5--5--5---3-3--3--3--|
G--9---9--9--9-7---7--7--7--7---7--7--7-6---6--6--6---5---5--5--5-4---4--4--4-|
D-0-----------0------------0-----------0-------------0-----------0------------|
A-----------------------------------------------------------------------------|
E-----------------------------------------------------------------------------|

Basic chord fingering {probably not exactly what Trey does}
Dsus2: xx0230
Am: x02210
C: x32010
G: 320033
Em: 022000

| /  slide up
| \  slide down
| h  hammer-on
| p  pull-off
| ~  vibrato
| +  harmonic
| x  Mute note
===============================================================================





Comments


Popular Phish tabs & chords
Prince Caspian Chords
Timber Chords
Cavern Tabs
Dog-faced Boy Tabs
Landlady 1 Tabs
Limb By Limb Tabs
Poor Heart Tabs
Connection Ukulele
Halleys Comet Ukulele
Wilson Ukulele


Song lyrics



↑ Back to top | Tablatures and chords are parodies/interpretations of the original songs. You may use it for private study, scholarship, research or language learning purposes only
© 2014 AZChords.com Contact us | Privacy policy | DMCA | Add/correct tabs | Request tabs | Top 50 tabs