» » »

Dinner And A Movie Tabs (ver.1)

Artists:  A B C D E F G H I J K L M N O P Q R S T U V W X Y Z # 

Dinner And A Movie Tabs (ver.1)

Phish
Rating:
0/5 (0 votes)

Hard to play? Try these video lessons and learn fast.
                Dinner and A Movie----------------------PHISH


Am7                              F7
Let's go out to dinner and see a movie
Am7                              F7
Let's go out to dinner and see a movie
Am7                      Bb
Let's go out to dinner - and see a movie
B                                C
Let's go out to dinner and see a movie

Keyboard and guitar riff


E|--------------8-10--------------------------------9-------------------|
B|------------11----11-10-------------------------13-13-9---------------|
G|-----------8----------10-------------------10-13-------10-------------|
D|----8-12-10------------10-------------10-11--------------11-10--------|
A|------------------------11-10-------11------------------------11-10---|
E|8-11-------------------------11-9-13-------------------------------11-|


Guitar Solo

Piano & guitar riff again

Amaj7                            Dmaj7
Let's go out to dinner and see a movie

Last verse
Am7                              F7
Let's go out to dinner and see a movie
Am7                              F7
Let's go out to dinner and see a movie
Am7                      Bb
Let's go out to dinner - and see a movie
Bdim                             Cdim
Let's go out to dinner and see a movie

Heres a fill


E----------------------------------------------13----------|
B-15-------15---------------13-----13-16-13--------16-13---|
G-----12-------12-----15-15------15------------------------|
D----------------------------------------------------------|
A----------------------------------------------------------|
E----------------------------------------------------------|  (x2)


E------------------------------|
B-13----16-----13-----16-------|
G----15----15-----15-----15----|
D------------------------------|
A------------------------------|
E------------------------------|
            
Hard to play? Try these video lessons and learn fast. | Correct




comments powered by Disqus
↑ Back to top | Tablatures and chords are parodies/interpretations of the original songs. You may use it for private study, scholarship, research or language learning purposes only