» » »

Phish, Cavern Tabs (ver.1)

Artists:  A B C D E F G H I J K L M N O P Q R S T U V W X Y Z # 

Cavern Tabs (ver.1)

Phish Tabs
Rating:
4/5 (2 votes)
Cavern lessons Tabs too difficult? Try these video lessons and learn fast
                -------------------------------------------------------------------------------
-------------------------------------------------------------------------------

Intro: At the beginning, Trey seems to just plays alterations of Em, and
holds them for 4 measures each while Fishman plays lays down a groove.
             Em
E-------------0--------|-------------0------|
B-------------0--------|-------------0------|
G-------------0--------|-------------0------|
D-------------2--------|-------------6------|
A-------------2--------|-------------7------|
E-----12\0----0--------|-----12\0----0------|

Main Riff: This is very similar, in fact, the same as the main riff in
Weekapaug Grove.  This is how I think Trey plays it, and it sounds
pretty close.
              E/G                    D(Em)        A
E-------------------------------|----------------------------|
B-------------7---h8----8---8---|----7---7----8/--10---10----|
G-------------7----7----7---7---|----7---7----7/--9----9-----|
D-------------7---h9----9---9---|----7---7----9/--11---11----|
A-------------------------------|----------------------------|
E-----12/0----------------------|----------------------------|

“Steal away before the dawn” Riff:
        G      D      E     B(m?)
E----------------------------------------------------------------------
B-------12-----10-----9-----7------------------------------------------
G-------12-----11-----9-----8(7)---------------------------------------
D-------12-----12-----9-----9------------------------------------------
A-------10-----12-----7-----9------------------------------------------
E----------------------------------------------------------------------


“Whatever you do, take care of your shoes” Riff:
      E     A      D      A
E---------------------------------|
B-----9-----10-----10-----10------|
G-----9-----9------11-----9-------|
D-----9-----11-----12-----11------|
A-----7-----12-----12-----12------|
E---------------------------------|

| /  slide up
| \  slide down
| h  hammer-on
| p  pull-off
| ~  vibrato
| +  harmonic
| x  Mute note
===============================================================================
            
Submit corrections

comments powered by Disqus
↑ Back to top | Phish Tabs for Cavern. Lyrics for acoustic guitar and electric guitar. Tablatures and chords are parodies/interpretations of the original songs. You may use it for private study, scholarship, research or language learning purposes only