» » »

Phish, Bug Bass tabs (ver.1)

Artists:  A B C D E F G H I J K L M N O P Q R S T U V W X Y Z # 

Bug Bass tabs (ver.1)

Phish Tabs
 Rating:
4/5 (4 votes)
Bug lessons Tabs too difficult? Try these video lessons and learn fast
                Verse:

G|0---0----------------------------
D|--------3---3-------------------0
A|--------------2-3---3------------
E|------------------------3----3---

G|0---0-----------------------------
D|--------3---3------------------0--
A|---------------3---3--------------
E|-----------------------3---3--3---

G|----0------------0----------------
D|--------3---3---3-----------------
A|-------------------3---3----------
E|3--------------------------3---3--

Pre-Chorus: (Listen to song to get the hang of timing)

G|-19---21-17---16-17---19-16---12--\-
D|--------------------------------12\-
A|------------------------------------
E|------------------------------------

G|-19---21-17----17---19-16----12-------
D|-------------------------------12--5\-
A|------------------------------------\-
E|--------------------------------------

Chorus:

G|--------0--0---0--------------------------0-0---
D|-----------------3-2-0--------------------------
A|---3-3-----------------3-2---1-2-3-3------------
E|-1-------------------------1----------3-3-----3-

G|--------------0---0-0----------------------
D|----------2-3---3------------------------0-
A|------3-3--------------------3---3---------
E|-1--1------------------1---1--------3------

Second Prechorus:

G|-19---21-17-------12h14---17-17---19-16--12--/--
D|-------------12h14-------------------------12/--
A|------------------------------------------------
E|------------------------------------------------

G|-16---21-17-------12h14---17-----17----19-16--12--/-----
D|-------------12h14----------17-19--17------------12-5/--
A|--------------------------------------------------------
E|--------------------------------------------------------
            
Submit corrections

comments powered by Disqus
↑ Back to top | Phish Bass for Bug. Lyrics for acoustic guitar and electric guitar. Tablatures and chords are parodies/interpretations of the original songs. You may use it for private study, scholarship, research or language learning purposes only