» » »

Phish, Bouncing Round The Room Bass tabs (ver.1)

Artists:  A B C D E F G H I J K L M N O P Q R S T U V W X Y Z # 

Bouncing Round The Room Bass tabs (ver.1)

Phish Tabs
 Rating:
4/5 (4 votes)
Bouncing Round The Room lessons Tabs too difficult? Try these video lessons and learn fast
                Drum intro               (0:28)           Play this 4x
G|--------------------------------------------------------------------
D|--------------------------------------------------------------------
A|--------------------------------------------------------------------
E|-----------------------5-5-5-5--------------------------------------




Verse

     (0:41)                            "She whispered words.."
G|-------------------------------------------------------------------
D|---5-5-------------------------------------------------------------
A|-------5-5----------5-5-5-5----------------------------------------
E|------------5-5-5-5----------5-5-5-5--3-3-3-3----------------------


Chorus

"..And I awoke, faintly bouncin round the room"
G|-------------------------------------------------------------------
D|-------------------------------------------------------------------
A|----5-5-5-5--5-----------------------------------------------------
E|---------------5-5-5-5--5--8-8-8-8--8---3-3-3-3--------------------
            
Submit corrections

comments powered by Disqus
↑ Back to top | Phish Bass for Bouncing Round The Room. Lyrics for acoustic guitar and electric guitar. Tablatures and chords are parodies/interpretations of the original songs. You may use it for private study, scholarship, research or language learning purposes only