>
 >
All Things Reconsidered

All Things Reconsidered Guitar Tabs

Phish - All Things Reconsidered chords, tabs, tablatures, lyrics

Guitar lessons | Add/correct | Request | Top 50 tabs Artists:  A B C D E F G H I J K L M N O P Q R S T U V W X Y Z 0-9

All Things Reconsidered Guitar Tabs – Phish

CD, Sheet music, Poster

Do you like All Things Reconsidered? Share with your friends now
Tabs
corrections by me

-the only advice i can give on learning this is to play along with
the song to get the timing down. trey, as usual, has very interesting
tempo.

  3--3--3                        3--3--3           
E-19-18-19--16----------------------------------------------
B--------------17-----19--16---------------16---------------
G------------------18--------16--18-16-18-----16---15-18-16-
D-----------------------------------------------------------
A-----------------------------------------------------------
E-----------------------------------------------------------

  3--3--3                        3--3--3
E-----------------------------------------------------------
B-----------------------------------------------------------
G-16-15-16--13----------------------------------------------
D--------------14-----16--13---------------13---------------
A------------------16--------14--16-14-16-----14---13-16-14-
E-----------------------------------------------------------

     3--3--3                        3--3--3
E----------------------------------------------------------------
B-------------------------------------------------------14-16----
G----------------------------13-----15p13--15-16-13--15-------16-
D----13----13--14-----13-16-----14-------16----------------------
A-14----14--------16---------------------------------------------
E----------------------------------------------------------------

  3--3--3          3--3--3          3--3--3          3--3--3
E--------------------------------------------------------------------
B-17-16-17-----17--16-14-16-----16--14-13-14-----14--12-11-12-----12-
G-----------18---------------16---------------15---------------13----
D--------------------------------------------------------------------
A--------------------------------------------------------------------
E--------------------------------------------------------------------
			
  3--3--3              3--3--3 s      3--3--3          3--3--3
E-------------------------------------------------------------------------
B-11-10-11-----11--------------------------------------------------19-----
G-----------12--------13-12-13-15---13--12--12---15-14-16-15-16-/18-------
D------------------14---------------------15------------------------------
A-------------------------------------------------------------------------
E-------------------------------------------------------------------------

  4--4--4--4  4--4--4--4       3--3--3
E--------------------------------------------------------------
B---16-17-16-------------------------------16----17-----14-----
G-16----------18-16-18-16-15------16-15-16---------18-15---16--
D---------------------------18---------------------------------
A--------------------------------------------------------------
E--------------------------------------------------------------

*corrections end here... i dunno about any of the next stuff.. it 
just doesnt seem as much fun to play as the first part.
							-jmm

  3-(3)-3                        3--3--3
E----------------------------------------------------------------
B----------------------------------------------------------------
G-16(15)16--13---------------------------------------------------
D--------------14-----16--13---------------13-----------------13-
A------------------16--------14--16-14-16-----14--13-16-14-14----
E----------------------------------------------------------------

X-- Page's notes
  3-3-3  3--3--3    3-3-3  3--3--3    3-3-3  3--3--3    3-3-3  3-3-3
E-----------------|-----------------|-----------------|--------------|-
B-----------------|-----------------|-----------------|--------------|-
G-----------------|-----------------|-----------------|--------------|-
D-X-X-X--14-13-14-|-X-X-X--13-12-13-|-X-X-X--11-10-11-|-X-X-X--9-8-9-|-
A-----------------|-----------------|-----------------|--------------|-
E-----------------|-----------------|-----------------|--------------|-

  3--3--3                      3--3--3    S/
E-------------------------------------------------------
B-------------------------------------------------------
G-12-11-12------------9--------------------9------------
D----------14-11---10---12-9---11-10-11------11-8-11-9--
A-------------------------------------------------------
E-------------------------------------------------------





Comments


Popular Phish tabs & chords
Gotta Jiboo Bass Tabs
Bouncing Around The Room 1 Tabs
Cavern Tabs
First Tube 2 Tabs
Mikes Groove 1 Tabs
Punch You In The Eye Tabs
Sanity Tabs
Silent In The Morning Tabs
Wilson Tabs
Wolfman's Brother Tabs


Song lyrics



↑ Back to top | Tablatures and chords are parodies/interpretations of the original songs. You may use it for private study, scholarship, research or language learning purposes only
© 2014 AZChords.com Contact us | Privacy policy | DMCA | Add/correct tabs | Request tabs | Top 50 tabs