» » »

Phish, Allixa Bass tabs (ver.1)

Artists:  A B C D E F G H I J K L M N O P Q R S T U V W X Y Z # 

Allixa Bass tabs (ver.1)

Phish Tabs
 Rating:
4/5 (4 votes)
Allixa lessons Tabs too difficult? Try these video lessons and learn fast
                --------------------------------------------------------------|
D--------------------------------------------------------------|
A---------4-4-6-6---------4-4-6-6---------4-4-6-6--------446---|
E-6666666---------6666666---------6666666---------666666-----23|

Verse

G-----6----------|-----6------|
D---8--8-6-8-6-8-|---8--8-6-8-|
A--8-8--8---8----|--8-8--8----|
E-6-------------9|-6---------9|

Pre-Chorus   "Axilla...Axilla"

G---------------------------|
D---------------------------|
A---------------------------|
E-1-1-1-1-1-1-1-1-1-1-1-1-1-|

End

G---------------------|
D---------4-----------|
A-----4h6--6-8h10-8---|
E-6-6----6--9------6-9|
            
Submit corrections

comments powered by Disqus
↑ Back to top | Phish Bass for Allixa. Lyrics for acoustic guitar and electric guitar. Tablatures and chords are parodies/interpretations of the original songs. You may use it for private study, scholarship, research or language learning purposes only