» » »

Aftermath Tabs (ver.1)

Artists:  A B C D E F G H I J K L M N O P Q R S T U V W X Y Z # 

Aftermath Tabs (ver.1)

Phish
Rating:
0/5 (0 votes)

Tabs too difficult? Try these video lessons and learn fast.
                heres some guitar notes

E|-------0-----------0-----------0-----------0----------------------0---|
B|-1-------1---1-------1---1-------1---1-------1---1-----0-1--3-------3-|
G|---0-----------0-----------2-----------0-----------0----------2-------|
D|-----2-----------2-----------2-----------0-----------2----------0-----|
A|-3-----------2-----------0----------------------------------0---------|
E|-------------------------------------3-----------2--------------------|

E|----------0--1------------------------------8--8--8--7-7-7--5-5-5--3-|
B|--3-----3------3-0--3--/5-5--6-6/8-8-6-5---10-10-10--8-8-8--6-6-6--5-|
G|----2---------------3--/5-5--7-7/9-9-7-5-----------------------------|
D|------0--------------------------------------------------------------|
A|--0------------------------------------------------------------------|
E|---------------------------------------------------------------------|

E|-3-3---1-1-1--0-|
B|-5-5---3-3-3--0-|
G|----------------|
D|----------------|
A|----------------|
E|----------------|
            
Tabs too difficult? Try these video lessons and learn fast.


comments powered by Disqus
↑ Back to top | Tablatures and chords are parodies/interpretations of the original songs. You may use it for private study, scholarship, research or language learning purposes only