» » »

Phillip Phillips, Home Tabs (ver.1)

Artists:  A B C D E F G H I J K L M N O P Q R S T U V W X Y Z # 

Home Tabs (ver.1)

Phillip Phillips Tabs
 Rating:
4/5 (4 votes)
Home lessons Tabs too difficult? Try these video lessons and learn fast
1
                
Boom! Owned....great song.  So happy he won... 



Intro
  C                             F2 
|--------------|--------------|--------------|-------------|
|----1---------|----1---------|----1---------|----1--------|
|---------0----|---------0----|---------0----|---------0---|
|----2------2--|----2------2--|----3------3--|----3------3-|  x2
|-3-----3------|-3-----3------|-3-----3------|-3-----3-----|
|--------------|--------------|--------------|-------------|

Verse
  C                             F2 
|--------------|--------------|--------------|-------------|
|----1---------|----1---------|----1---------|----1--------|
|---------0----|---------0----|---------0----|---------0---|
|----2------2--|----2------2--|----3------3--|----3------3-|
|-3-----3------|-3-----3------|-3-----3------|-3-----3-----|
|--------------|--------------|--------------|-------------|

  C                             F2
|--------------|--------------|--------------|-------------|
|----1---------|----1---------|----1---------|----1--------|
|---------0----|---------0----|---------0----|---------0---|
|----2------2--|----2------2--|----3------3--|----3------3-|
|-3-----3------|-3-----3------|-3-----3------|-3-----3-----|
|--------------|--------------|--------------|-------------|

  C                             F2
|--------------|--------------|--------------|-------------|
|----1---------|----1---------|----1---------|----1--------|
|---------0----|---------0----|---------0----|---------0---|
|----2------2--|----2------2--|----3------3--|----3------3-|
|-3-----3------|-3-----3------|-3-----3------|-3-----3-----|
|--------------|--------------|--------------|-------------|

  C                             F2
|--------------|--------------|--------------|-------------|
|----1---------|----1---------|----1---------|----1--------|
|---------0----|---------0----|---------0----|---------0---|
|----2------2--|----2------2--|----3------3--|----3------3-|
|-3-----3------|-3-----3------|-3-----3------|-3-----3-----|
|--------------|--------------|--------------|-------------|

  Am                            F2
|--------------|--------------|--------------|--------------|
|----1---------|----1---------|----1---------|----1---------|
|---------2----|---------2----|---------0----|---------0----|
|----2------2--|----2------2--|----3------3--|----3------3--|
|-0-----0------|-0-----0------|-3-----3------|-3-----3------|
|--------------|--------------|--------------|--------------|

  C                             F2
|--------------|--------------|--------------|-------------|
|----1---------|----1---------|----1---------|----1--------|
|---------0----|---------0----|---------0----|---------0---|
|----2------2--|----2------2--|----3------3--|----3------3-|
|-3-----3------|-3-----3------|-3-----3------|-3-----3-----|
|--------------|--------------|--------------|-------------|

  C   C/B   Am   G      Am                   
|---------------------|--------------|--------------|--------------|
|---------1----1------|----1---------|----1---------|----1---------|
|----0--------------0-|---------2----|---------2----|---------2----|
|---------------------|----2------2--|----2------2--|----2------2--|
|-3----2----0---------|-0-----0------|-0-----0------|-0-----0------|
|----------------3----|--------------|--------------|--------------|

  F     C/E   G  
|---------------------------|
|----1-----1----------------|
|----------------0-----0----|
|-3-----2-------------------|
|---------------------------|
|-------------3-----3-------|

  C                             
|--------------|--------------|--------------|--------------|
|----1---------|----1---------|----1---------|----1---------|
|---------0----|---------0----|---------0----|---------0----|
|----2------2--|----2------2--|----2------2--|----2------2--|
|-3-----3------|-3-----3------|-3-----3------|-3-----3------|
|--------------|--------------|--------------|--------------|

Strum the rest  - Rhythm  D  D (D) U D  D  D (D) U D U 
                               miss          miss 

C            F2            C     F2
Settle down, it'll all be clear
C                        F2                        C     F2
Don't pay no mind to the demons they fill you with fear
    Am                        F2
The trouble it might drag you down
           C                       G
If you get lost, you can always be found
     C /  C/B /  Am / G /    Am 
Just know you're not alone
                   F /  C/E / G /  /     Cx2
Cause I'm going to make this place your home

Interlude -  
F2  C  Am  G  F2  C  Gx2
F2  C  Am  G  F2  C  Gx2
F2  C  Am  G  F2  C  Gx2

C            F2            C     F2
Settle down, it'll all be clear
C                        F2                        C     F2
Don't pay no mind to the demons they fill you with fear
    Am                        F2
The trouble it might drag you down
           C                       G
If you get lost, you can always be found
     C /  C/B /  Am / G /    Am
Just know you're not alone
                   F /  C/E / G /  /     Cx2
Cause I'm going to make this place your home

Interlude -  
F2  C  Am  G  F2  C  Gx2
F2  C  Am  G  F2  C  Gx2
            
Submit corrections

comments powered by Disqus
↑ Back to top | Phillip Phillips Tabs for Home. Lyrics for acoustic guitar and electric guitar. 1 Tablatures and chords are parodies/interpretations of the original songs. You may use it for private study, scholarship, research or language learning purposes only