» » »

T4-Bass Bass tabs (ver.1)

Artists:  A B C D E F G H I J K L M N O P Q R S T U V W X Y Z # 

T4-Bass Bass tabs (ver.1)

Phaze
Rating:
0/5 (0 votes)

Hard to play? Try these video lessons and learn fast.
                Main:
g:-------------------------------------------|
d:-------------------------------------------|
a:--8----8----8----8------8-----8-----8-7----|
e:----------------------------------------8-7|
b:6---6----6----6-----6------6-----6---------|

Riff 2(w\ treble allup bass half down)
  s  p  s s   s s s s s s s s
g:---------------------------|
d:---2-----------------------|
a:------2-0---3-0-4-5-0-3-2-0|
e:0--------------------------|
b:---------------------------|

I'll update the rest now i have go!!
            
Hard to play? Try these video lessons and learn fast. | Correct




comments powered by Disqus
↑ Back to top | Tablatures and chords are parodies/interpretations of the original songs. You may use it for private study, scholarship, research or language learning purposes only