» » »

Shush-Ness Bass tabs (ver.1)

Artists:  A B C D E F G H I J K L M N O P Q R S T U V W X Y Z # 

Shush-Ness Bass tabs (ver.1)

Phaze
Rating:
0/5 (0 votes)

Hard to play? Try these video lessons and learn fast.
                Intro:
g:---------------------------|
d:---------------------------|
a:2/--2/--2/-2/-2/-2/-2/2/2/2|
e:---------------------------|
b:---------------------------|

Riff 1:
g:-----7-----7------7----------5-----5------5----|
d:---7---7-----7------7------5---5-----5------5--|
a:5--------5-----5------5--3-------3-----3------3|
e:-----------------------------------------------|
b:-----------------------------------------------|

Riff 2:
g:-----------------------------------------------|
d:-----------------------------------------------|
a:----5-----5------5----------3------3------3----|
e:--5---5-----5------5------3---3------3------3--|
b:3-------3-----3------3--1-------1------1------1|
            
Hard to play? Try these video lessons and learn fast. | Correct




comments powered by Disqus
↑ Back to top | Tablatures and chords are parodies/interpretations of the original songs. You may use it for private study, scholarship, research or language learning purposes only