» » »

Seein' In Yellow Bass tabs (ver.1)

Artists:  A B C D E F G H I J K L M N O P Q R S T U V W X Y Z # 

Seein' In Yellow Bass tabs (ver.1)

Phaze
Rating:
0/5 (0 votes)

Hard to play? Try these video lessons and learn fast.
                Riff 1:
g:--------------------------1-1-1-1-1|
d:--------1-1-1-1-1-3-3-3-3----------|
a:1-1-1-1----------------------------|
e:-----------------------------------|
b:-----------------------------------|

Riff 2:
g:-----------------------------------|
d:-----------------------------------|
a:-----------------------------------|
e:6-6-6-6-------------------4-4-4-4-4|
b:--------4-4-4-4-4-6-6-6-6----------|

Riff 3:
g:---------------------------------------|
d:---------------------------------------|
a:1-1-1-1-1-4-4-4-4-4-5-5-5-5-5-0-0-0-0-0|
e:---------------------------------------|
b:---------------------------------------|

End:
g:-------|
d:-------|
a:-------|
e:5------|
b:-------|
            
Hard to play? Try these video lessons and learn fast. | Correct




comments powered by Disqus
↑ Back to top | Tablatures and chords are parodies/interpretations of the original songs. You may use it for private study, scholarship, research or language learning purposes only