» » »

Phaze, Que Dice Bass tabs (ver.1)

Artists:  A B C D E F G H I J K L M N O P Q R S T U V W X Y Z # 

Que Dice Bass tabs (ver.1)

Phaze Tabs
Rating:
0/5 (0 votes)
Que Dice lessons Tabs too difficult? Try these video lessons and learn fast
                Riff 1:
--pppppppppppppppppppppppppppp
g:----------------------------|
d:----------------------------|
a:--2----7h9------2-3-5--7h9--|
e:3---3------7--3------------7|
b:----------------------------|


Riff 2:
g:---------------|
d:------------2--|
a:--------2-3----|
e:------3-------0|
b:1-3------------|
            
Submit corrections

comments powered by Disqus
↑ Back to top | Phaze Bass for Que Dice. Lyrics for acoustic guitar and electric guitar. Tablatures and chords are parodies/interpretations of the original songs. You may use it for private study, scholarship, research or language learning purposes only