» » »

Phaze, Nfs Need For Subs Bass tabs (ver.1)

Artists:  A B C D E F G H I J K L M N O P Q R S T U V W X Y Z # 

Nfs Need For Subs Bass tabs (ver.1)

Phaze Tabs
Rating:
0/5 (0 votes)
Nfs  Need For Subs lessons Tabs too difficult? Try these video lessons and learn fast
                Tunning:just put the 3rd in G & the 5th in A.

Riff 1:
g:-----------|
d:-----------|
g:7--5---9--3|
e:-----------|
a:-----------|

Riff 2:
g:-----------------------|
d:-----------------------|
a:-----------------------|
e:-----------------------|
b:5-5-3-3-3-7-7-7-1-1-1-1|

Riff 3:
g:--7--7-----5--5-----9--9-----3--3---|
d:-7--7--7--5--5--5--9--9--9--3--3--3-|
g:7--7--7--5--5--5--9--9--9--3--3--3--|
e:------------------------------------|
a:------------------------------------|
            
Submit corrections

comments powered by Disqus
↑ Back to top | Phaze Bass for Nfs Need For Subs. Lyrics for acoustic guitar and electric guitar. Tablatures and chords are parodies/interpretations of the original songs. You may use it for private study, scholarship, research or language learning purposes only