» » »

Phaze, Modellista Fusion Bass tabs (ver.1)

Artists:  A B C D E F G H I J K L M N O P Q R S T U V W X Y Z # 

Modellista Fusion Bass tabs (ver.1)

Phaze Tabs
 Rating:
4/5 (4 votes)
Modellista Fusion lessons Tabs too difficult? Try these video lessons and learn fast
                Riff 1:
g:----------------------------------------|
d:----------------------------------------|
a:----------------------------------------|
e:----2-------------------2---3-5-2---3---|
b:3-3---3-1-3-0---1---3-3---3-------------|

Riff 2:
g:-----------------------------------------|
d:-----------------------------------------|
a:-----------------------------------------|
e:2-1-2-2h3-2-1---------2-1-2-2h3-2-1-2---3|
b:--------------0---1----------------------|

Riff 3:
g:---------------------------------------------------------------|
d:---------------------------------------------------------------|
a:---------------------------------------------------------------|
e:------2-2-2-2-2-----------------------2-2-2-2-2-3-3-3-5-5-5-5-5|
b:3-3-3-----------0-0-0-1-1-1-1-1-3-3-3--------------------------|
            
Submit corrections

comments powered by Disqus
↑ Back to top | Phaze Bass for Modellista Fusion. Lyrics for acoustic guitar and electric guitar. Tablatures and chords are parodies/interpretations of the original songs. You may use it for private study, scholarship, research or language learning purposes only