» » »

Medianoche Bass tabs (ver.1)

Artists:  A B C D E F G H I J K L M N O P Q R S T U V W X Y Z # 

Medianoche Bass tabs (ver.1)

Phaze
Rating:
0/5 (0 votes)

Hard to play? Try these video lessons and learn fast.
                Riff 1:
g:---------------------------------------------------------------|
d:---------------------------------------------------------------|
a:3-3-3-3-------------------------3-3-3-3-5-5-5-5-6-6-6-6--------|
e:--------4-4-4-4-3-3-3-3-6-6-6-6-------------------------6-6-6-6|
b:---------------------------------------------------------------|

Riff 2:
g:--------------------------------|
d:------------------------8-8-8-8-|
a:--------------------------------|
e:1-1-1-1-4-4-4-4-6-6-6-6(3-3-3-3)|(3rd time)
b:--------------------------------|

Riff 3:
g:---------------------------------------------------------------------|
d:---------------------------------------------------------------------|
a:--------------------------------------------5-5-5-5-6-6-6-6-6-6-6-6-6|
e:6-6-6-6-4-4-4-4-3-3-3-3-3-3-3-3-3-3-6-6-6-6--------------------------|
b:---------------------------------------------------------------------|
            
Hard to play? Try these video lessons and learn fast. | Correct




comments powered by Disqus
↑ Back to top | Tablatures and chords are parodies/interpretations of the original songs. You may use it for private study, scholarship, research or language learning purposes only