» » »

Phaze, Loco Ocho Bass tabs (ver.1)

Artists:  A B C D E F G H I J K L M N O P Q R S T U V W X Y Z # 

Loco Ocho Bass tabs (ver.1)

Phaze Tabs
 Rating:
4/5 (4 votes)
Loco Ocho lessons Tabs too difficult? Try these video lessons and learn fast
1
                Riff 1:
g:------12-------------14|
d:------------9----12----|
a:-----------------------|
e:-----------------------|
b:-----------------------|

Riff 2:
g:----------------------------------|
d:----------------------------------|
a:----------------------------------|
e:----------------5-5-5-3-3-3--3-3-3|
b:0-0-0---0-3-3-3-------------------|

Fill:
g:---------------|
d:---------------|
a:---------------|
e:5-3---3--------|
b:----5---5-3-5-3|

Fill2:
g:---------------|
d:---------------|
a:5-3---3--------|
e:----5---5-3-5-3|
b:---------------|

Fill3:
g:-----------------|
d:-----------------|
a:-----------------|
e:3h5-5-3h5-5-3h5-5|
b:-----------------|

Bridge:
g:---------------------------|
d:---------------------------|
a:---------------------------|
e:5-3---3-------5-3---3------|
b:----5---5-3-5-----5---5-3-5|X4

Riff 2:
g:----------------------|
d:---------------5---5--|
a:-------------5---5---5|
e:--------5-3-----------|
b:0----3----------------|
            
Submit corrections

comments powered by Disqus
↑ Back to top | Phaze Bass for Loco Ocho. Lyrics for acoustic guitar and electric guitar. 1 Tablatures and chords are parodies/interpretations of the original songs. You may use it for private study, scholarship, research or language learning purposes only