» » »

Phaze, Light Headed Bass tabs (ver.1)

Artists:  A B C D E F G H I J K L M N O P Q R S T U V W X Y Z # 

Light Headed Bass tabs (ver.1)

Phaze Tabs
 Rating:
4/5 (4 votes)
Light Headed lessons Tabs too difficult? Try these video lessons and learn fast
1
                Riff 1:
g:---------------------------|
d:---------------------------|
a:------------5-------------3|
e:3-333-33-3-----1-111-11-1--|
b:---------------------------|

Riff 2:
g:-------------------------|
d:-------------------------|
a:-------------------------|
e:3-333-33-3---1-111-11-1--|
b:-----------3------------1|

Riff 3:
g:-----------------------|
d:-----------------------|
a:-----------------------|
e:3-3---------0-0--------|
b:----1-1-1-1-----0-0-0-0|

Riff 4:
g:-----------7------------5|
d:5-555-55-5---3-333-33-3--|
a:-------------------------|
e:-------------------------|
b:-------------------------|

End:
g:-----------------------------------------|
d:-----------------------------------------|
a:-----------------------------------------|
e:3-0-1-1-1-1-3-0-1-1-1-1-3-0-1-1-1-1-3-0-1|
b:-----------------------------------------|
            
Submit corrections

comments powered by Disqus
↑ Back to top | Phaze Bass for Light Headed. Lyrics for acoustic guitar and electric guitar. 1 Tablatures and chords are parodies/interpretations of the original songs. You may use it for private study, scholarship, research or language learning purposes only