» » »

La Latin Influence Bass tabs (ver.1)

Artists:  A B C D E F G H I J K L M N O P Q R S T U V W X Y Z # 

La Latin Influence Bass tabs (ver.1)

Phaze
Rating:
0/5 (0 votes)

Hard to play? Try these video lessons and learn fast.
                Riff 1:
g:---------------------|
d:-------------------10|
a:-----9-10-10-10-10---|
e:7-10-----------------|

Riff 2:
g:----------------------|
d:--------------------13|
a:-----11-12-12-12-12---|
e:9-12------------------|

Riff 3:
g:----------------------|
d:--9---9---9---10-----7|
a:----------------------|
e:7---7---7---8----5----|

Riff 4:
g:-------------|
d:-------------|
a:-------------|
e:7777-7777-8-5|



Thats all
            
Hard to play? Try these video lessons and learn fast. | Correct




comments powered by Disqus
↑ Back to top | Tablatures and chords are parodies/interpretations of the original songs. You may use it for private study, scholarship, research or language learning purposes only