» » »

Island Of The Waka Waka Bass tabs (ver.1)

Artists:  A B C D E F G H I J K L M N O P Q R S T U V W X Y Z # 

Island Of The Waka Waka Bass tabs (ver.1)

Phaze
Rating:
0/5 (0 votes)

Hard to play? Try these video lessons and learn fast.
                For riff 2 the guitar hits the inbetween notes.

Riff 1:
g:--------------------------------------|
d:--2-------------------2--------------4|
a:4---4-2---2-----2---4---4-2---2-------|
e:--------4---4-2-------------4---4-2---|

Riff 2:
g:-----------------------------|
d:-----------------------------|
a:-----------------------------|
e:0-0-0-----------5-5-5--------|

Riff 3:
g:-------------------------------|
d:-------------------------------|
a:-------------------------------|
e:0-0-0-4-4-4-4-4-5-5-5-7-7-7-7-7|


Enjoy
            
Hard to play? Try these video lessons and learn fast. | Correct




comments powered by Disqus
↑ Back to top | Tablatures and chords are parodies/interpretations of the original songs. You may use it for private study, scholarship, research or language learning purposes only