» » »

Phaze, Insom-Niak Bass tabs (ver.1)

Artists:  A B C D E F G H I J K L M N O P Q R S T U V W X Y Z # 

Insom-Niak Bass tabs (ver.1)

Phaze Tabs
 Rating:
4/5 (4 votes)
Insom-Niak lessons Tabs too difficult? Try these video lessons and learn fast
1
                Riff 1:
g:----5-----5------------|
d:--5-----5--------------|
a:3-----3-------------1-5|
e:------------3-3-3-3----|
b:-----------------------|

Riff 2:
g:-----------------------|
d:-----------------------|
a:3-----3-------------1-5|
e:--1-----1---3-3-3-3----|
b:----1-----1------------|

Riff 3:
g:--------------------------------------------------------------------------|
d:--------------------------------------------------------------------------|
a:33333333-----------11111111-55555555-111111111-55555555-333333333---------|
e:---------333333333------------------------------------------------33333333|
b:--------------------------------------------------------------------------|

Riff 4:
g:----------------|
d:----------------|
a:3--3---------1-5|
e:-----3-3-3-3----|
b:----------------|



Enjoy
            
Submit corrections

comments powered by Disqus
↑ Back to top | Phaze Bass for Insom-Niak. Lyrics for acoustic guitar and electric guitar. 1 Tablatures and chords are parodies/interpretations of the original songs. You may use it for private study, scholarship, research or language learning purposes only