» » »

Hyde Park Bass tabs (ver.1)

Artists:  A B C D E F G H I J K L M N O P Q R S T U V W X Y Z # 

Hyde Park Bass tabs (ver.1)

Phaze
Rating:
0/5 (0 votes)

Hard to play? Try these video lessons and learn fast.
                Riff 1:
g:----------------------|
d:----------------------|
a:--3------1---0-------2|
e:5---5--3---1---1-0-4--|
b:----------------------|


Riff 2:
g:-----------------------|
d:----------------2-----2|
a:----2-----2---3-----3--|
e:0-4---0-4---5-----5----|
b:-----------------------|


Riff 3:
g:-----------------------------------------------------------|
d:------7-7h9-7-7p5-5--5p3-3-------7-7h9-7-7-10-10--10p-9-9-9|
a:----7--------------------------7---------------------------|
e:5-5------------------------5-5-----------------------------|
b:-----------------------------------------------------------|
            
Hard to play? Try these video lessons and learn fast. | Correct




comments powered by Disqus
↑ Back to top | Tablatures and chords are parodies/interpretations of the original songs. You may use it for private study, scholarship, research or language learning purposes only