» » »

Go On Green Bass tabs (ver.1)

Artists:  A B C D E F G H I J K L M N O P Q R S T U V W X Y Z # 

Go On Green Bass tabs (ver.1)

Phaze
Rating:
0/5 (0 votes)

Hard to play? Try these video lessons and learn fast.
                Riff 1:
g:--------------------------------------|
d:--------------------------------------|
a:--------------------------------------|
e:--------5-5-5-5-5-5-3-3-3-3-3-3-3-3-3-|
b:0-0-0-0------------------------------2|

Riff 1:(3rd time)
g:-----------------------------------------|
d:-----------------------------------------|
a:-----------------------------------------|
e:--------5-5-5-5-5-5-3-3-3-3--------------|
b:0-0-0-0---------------------2-2-2-2-2-2-2|

Riff 2:
g:--------------------------------------------------------|
d:--------------------------------------------------------|
a:--------------------------------------------------------|
e:--------------5-5-5-5-5--5-3-3-3-3-2-2-2-2-3-3-3-3-2h3--|
b:0-0-0-0-0---0------------------------------------------2|
            
Hard to play? Try these video lessons and learn fast. | Correct




comments powered by Disqus
↑ Back to top | Tablatures and chords are parodies/interpretations of the original songs. You may use it for private study, scholarship, research or language learning purposes only