» » »

Get The Door...Its Mike Bass tabs (ver.1)

Artists:  A B C D E F G H I J K L M N O P Q R S T U V W X Y Z # 

Get The Door...Its Mike Bass tabs (ver.1)

Phaze
Rating:
0/5 (0 votes)

Hard to play? Try these video lessons and learn fast.
                Riff 1:
g:-----------------------------|
d:----3h5-----3h5-----3h5---3h5|
a:--5-------5-------5----------|
e:3-------3-------3-------5----|
b:-----------------------------|

Fill:
g:--------------|
d:--------------|
a:--------------|
e:0-0--0-1-1-1-1|
b:--------------|

Riff 3:
g:---------------------------------|
d:----3h5-----3-2------3h5------3-2|
a:--5-------5--------5--------5----|
e:3-------3-------3--------3-------|
b:---------------------------------|
            
Hard to play? Try these video lessons and learn fast. | Correct




comments powered by Disqus
↑ Back to top | Tablatures and chords are parodies/interpretations of the original songs. You may use it for private study, scholarship, research or language learning purposes only