» » »

Phaze, Flip Side Bass tabs (ver.1)

Artists:  A B C D E F G H I J K L M N O P Q R S T U V W X Y Z # 

Flip Side Bass tabs (ver.1)

Phaze Tabs
 Rating:
4/5 (4 votes)
Flip Side lessons Tabs too difficult? Try these video lessons and learn fast
                Main:
g:--------------------------------|
d:--------------------------------|
a:----------------3-3-3-3-5-5-5-5-|
e:5-5-5-5-3-3-3-3-----------------|
b:---------------(3-3-3-3-1-1-1-1)|X4 (third time only)

2nd:Slap These Notes
g:-------------xx3h5xh3h5x5h7x5h7|
d:xx5xx5xx3xx3-------------------|
a:-------------------------------|
e:-------------------------------|
b:-------------------------------|

Drum Solo:
g:---------------------------|
d:---------------------------|
a:--------------333333-555555|
e:555555-333333--------------|
b:---------------------------|X2

Bridge:
g:----------------------|
d:----------------------|
a:--9\\---7\\---5\\--3\\|
e:9-----7-----5----3----|
b:----------------------|X4

Song X2
            
Submit corrections

comments powered by Disqus
↑ Back to top | Phaze Bass for Flip Side. Lyrics for acoustic guitar and electric guitar. Tablatures and chords are parodies/interpretations of the original songs. You may use it for private study, scholarship, research or language learning purposes only