» » »

Fire Power Bass tabs (ver.1)

Artists:  A B C D E F G H I J K L M N O P Q R S T U V W X Y Z # 

Fire Power Bass tabs (ver.1)

Phaze
Rating:
0/5 (0 votes)

Hard to play? Try these video lessons and learn fast.
                Riff 1:
g:-------------------|
d:-------------------|
a:-------------------|
e:-------------------|
a:0-0-0-0-0-6-6-6-5-5|

Riff 2:
g:-------------------|
d:-------------------|
a:-------------------|
e:5-5-5-5-5-3-3-3-0-0|
a:-------------------|

End:
g:---------------------------|
d:---------------------------|
a:---------------------------|
e:5-4-3-2-1-0----------------|
a:------------6-5-4-3-2-13--0|
            
Hard to play? Try these video lessons and learn fast. | Correct




comments powered by Disqus
↑ Back to top | Tablatures and chords are parodies/interpretations of the original songs. You may use it for private study, scholarship, research or language learning purposes only