» » »

Phaze, Coscos Bass tabs (ver.1)

Artists:  A B C D E F G H I J K L M N O P Q R S T U V W X Y Z # 

Coscos Bass tabs (ver.1)

Phaze Tabs
 Rating:
4/5 (4 votes)
Coscos lessons Tabs too difficult? Try these video lessons and learn fast
                Riff 1:
g:-------------------------------------------------------------|
d:--------2---------------2------------------------------------|
a:2h4-4-4---4-2-4-2h4-4-4---4-2-4------------------------------|
e:--------------------------------0h2-2-0h2-2-0h2-0h2-2-0h2-2-3|
b:-------------------------------------------------------------|


Riff 2:
g:----------------------------------------|
d:--2--------------------2-------------2h4|
a:4---4--2-4-------2h4-4---4-2-4-0-2h4----|
e:-----------0-2h4------------------------|
b:----------------------------------------|


Riff 3:
g:------------------------|
d:------------------------|
a:------------------------|
e:--4--4--4--4------------|
b:--------------1--1--1--1|


Riff 4:
g:-------------------------------|
d:-------------------------------|
a:-------------------------------|
e:444-444-444-444----------------|
b:----------------111-111-111-111|
            
Submit corrections

comments powered by Disqus
↑ Back to top | Phaze Bass for Coscos. Lyrics for acoustic guitar and electric guitar. Tablatures and chords are parodies/interpretations of the original songs. You may use it for private study, scholarship, research or language learning purposes only