» » »

Cold Summer Bass tabs (ver.1)

Artists:  A B C D E F G H I J K L M N O P Q R S T U V W X Y Z # 

Cold Summer Bass tabs (ver.1)

Phaze
Rating:
0/5 (0 votes)

Hard to play? Try these video lessons and learn fast.
                Intro:
g:----------------------|
d:----------------------|
a:----11-----------9----|
e:9------12----7------10|
b:----------------------|

Riff 1:
g:-----------------------------------|
d:-----------------------------------|
a:----------11-----------------9-----|
e:9-0-9-7-9----12----7-0-7-5-7---10--|
b:-----------------------------------|

Riff 2:
g:------------------|
d:------------------|
a:------------------|
e:9--11-12---7--9-10|
b:------------------|

Riff 3:
g:--------------|
d:--------------|
a:--------------|
e:--------------|
b:2--4-5--0--2-3|

Riff 4:
g:---------------------------------------------------------------|
d:---------------------------------------------------------------|
a:---------------------------------------------------------------|
e:0-0-0-0-0-0-0-0-7-7-7-7-2-2-2-2-0-0-0-0-0-0-0-0-7-7-7-7-2-2-2-2|
b:---------------------------------------------------------------|
            
Hard to play? Try these video lessons and learn fast. | Correct




comments powered by Disqus
↑ Back to top | Tablatures and chords are parodies/interpretations of the original songs. You may use it for private study, scholarship, research or language learning purposes only