» » »

Club Payray Bass tabs (ver.1)

Artists:  A B C D E F G H I J K L M N O P Q R S T U V W X Y Z # 

Club Payray Bass tabs (ver.1)

Phaze
Rating:
0/5 (0 votes)

Hard to play? Try these video lessons and learn fast.
                Riff 1:
g:---------------------------------|
d:-------3-3-3h5--------3---3---3h5|
a:-----5--------------5---5---5----|
e:3-33-----------3-33--------------|
b:---------------------------------|

Riff 2:
g:----5-3---3--------3-1---1--|
d:--5-----5---5----3-----3---3|
a:3--------------1------------|
e:----------------------------|
b:----------------------------|

Riff 2(2nd time)
g:-------------------3-1---1--|
d:-----------------3-----3---3|
a:----3-1---1----1------------|
e:--3-----3---3---------------|
b:1---------------------------|
            
Hard to play? Try these video lessons and learn fast. | Correct




comments powered by Disqus
↑ Back to top | Tablatures and chords are parodies/interpretations of the original songs. You may use it for private study, scholarship, research or language learning purposes only