» » »

Biorythem Bass tabs (ver.1)

Artists:  A B C D E F G H I J K L M N O P Q R S T U V W X Y Z # 

Biorythem Bass tabs (ver.1)

Phaze
Rating:
0/5 (0 votes)

Hard to play? Try these video lessons and learn fast.
                Riff 1:
g:-------------------------------------------------------------|
d:-------------------------------------------------------------|
a:-------------------------------------------------------------|
e:-------------------------------------------------------------|
b:0--0-0-5-5-5-7-7-7-7-9-10-9-10-0--0-0-5-5-5-7-7-7-7-10-9-10-9|

Riff 2:
g:-----------------------------------------------------------|
d:-----------------------------------------------------------|
a:7-5---5-------------------------7-5---5--------------------|
e:----7---7-5-7-5---5-----------------7---7-5-7-5-7-5-7-5-7-5|
b:----------------7---7-5-7-5-7-5----------------------------|

End:
g:----|
d:----|
a:----|
e:----|
b:0---|



Enjoy
            
Hard to play? Try these video lessons and learn fast. | Correct




comments powered by Disqus
↑ Back to top | Tablatures and chords are parodies/interpretations of the original songs. You may use it for private study, scholarship, research or language learning purposes only